MIDSUMMERS NIGHT DREAM
SONG: MIDSUMMERS NIGHT DREAM
ARTIST: TRIUMPH
ALBUM: THUNDER 7
TABBED BY: Michael Reilly ([email protected])
[email protected]---
This is how I have been playing this song as long as I can remember.
It may not be 100% correct, but it will raise some eyebrows when you
play it. I fiddled with it for months by ear until I figured it out.
I am just now putting it to TAB.(15 years later)
This should be played on a 12 string, but is good on a 6 string with
a lot less stress to the hand. For Acoustic Electric add some chorus
in and it really sounds great.
There are two runs to this it should be played as such:
Intro played 2 times
Intro Riff
Main 1
Main 2
Main 3
Main 1 (replace part)
Main 2 (replace part)
Main 3
Ending
Tuning is Low E to D (tune down the E to a D)
!7! = bell or harmonic notes
6\4 = slide down
INTRO
e:-----------------------------------------------------------------|
B:------------!7!------------!7!--!12!-----------------------------|
G:---7-------------!7!-----------------!12!------------------------|
D:------7---------------!7!-----------------!12!-!7!-----------!7!-|
A:---------5------------------------------------------!7!----------|
E:0--------------------------------------------------------!7!-----|

e:---------------------------------------------------|
B:------------!7!------------!7!--!12!---------------|
G:---7-------------!7!-----------------!12!----------|
D:------7---------------!7!-----------------!12!-!7!-|
A:---------5-------------------------------------!7!-|
E:0--------------------------------------------------|
Repeat Intro

Intro riff
e:------------------------------------------------------------------------|
B:-7--8--10-8--7----------------------------------------------------------|
G:----------------9--7--6-----6--7--9-------------------------------------|
D:-------------------------9-----------4--5--7--5--4----------------------|
A:----------------------------------------------------7--5--4-----4--5--7-|
E:-------------------------------------------------------------7----------|

Main 1
e:---------------------------------------------------------------------------|
B:-----10-------8--------7--------5--------5\3--------3--------5--------5h7p5|
G:--------11-------9--------7--------6-----6\4-----------4--------6----------|
D:--------------------0--------------------0-------0--------0----------------|
A:--0--------0-----------------0--------0-------0----------------------------|
E:0------------------------------------------------------------------0-------|

e:--------9p5----|----------------------------------------------|
B:-------------5-|------10-------8--------7--------5--------5\3-|
G:--7------------|---------11-------9--------7--------6-----6\4-|
D:-----0---------|---------------------0--------------------0---|
A:---------------|---0--------0-----------------0--------0------|
E:---------------|0---------------------------------------------|

e:--------------------------------------------|
B:-------3--------5--------5h7p5---------2h3--|
G:----------4--------6------------7------2----|
D:----0--------0---------------------0---2h4--|
A:-0--------------------0----------------0----|
E:--------------------------------------------|
Second round Part Two Here (see botom of tab)

Main 2
e:-3--333--3--5----------------------------------|
B:-3--333--3--5-----7h8p7------------------------|
G:-4--444--4--6------------7h9p7-----------------|
D:-5--555--5--7-------------------7h9p7--------0-|
A:---------------------------------------7h9p7---|
E:---------------0-------------------------------|

e:-3--333--3--5-----------------10-|
B:-3--333--3--5-----7h8p7----------|
G:-4--444--4--6------------9p7-----|
D:-5--555--5--7--------------------|
A:---------------------------------|
E:---------------0-----------------|

e:-3--333--3--5-----7-------------------------|
B:-3--333--3--5--------7-----10-12-14-10-!12!-|
G:-4--444--4--6-----------7--------------!12!-|
D:-5--555--5--7--------------------------!12!-|
A:--------------------------------------------|
E:---------------0----------------------------|
Second round Part Three Here (see bottom of tab)

Main 3
e:------------------------------------------------------------|
B:-12--14--15---15-14---14-12---12-10---10-8--7--5---5--3---3-|
G:------------0-------0-------0-------0------------0------0---|
D:------------------------------------------------------------|
A:-10--12--14------12------10------9-------7--5--4------2-----|
E:------------------------------------------------------------|

e:------------------------------------------------------------|
B:-2--3--5--3--2--0--2--0-------------------------------------|
G:-------------------------2--4--2--0--2--0-------------------|
D:-------------------------------------------2--4--0----------|
A:----------------------------------------------------2--4--0-|
E:------------------------------------------------------------|
Back to Main 1 on first round
Go to Ending on secound round
Ending
e:-------------------------------------------------------------------|
B:--------------!7!------------!7!--!12!-----------------------------|
G:-----7-------------!7!-----------------!12!------------------------|
D:--------7---------------!7!-----------------!12!-!7!------------!7!|
A:-----------5------------------------------------------!7!----------|
E:--0--------------------------------------------------------!7!-----|

e:----------------------------------------------------|
B:-------------!7!------------!7!--!12!---------------|
G:----7-------------!7!-----------------!12!----------|
D:-------7---------------!7!-----------------!12!-!7!-|
A:----------5-------------------------------------!7!-|
E:-0--------------------------------------------------|

e:---------------------------------------------------------------------------|
B:-7--8--10-8--7-------------------------------------------------------------|
G:----------------9--7--6-----6--7--9----------------------------------------|
D:-------------------------9-----------4--5--7--5--4-------------------------|
A:----------------------------------------------------7--5--4-----4--5--7----|
E:-------------------------------------------------------------7-------------|

e:---------------------------------------------------------------------------|
B:----------------------------2h3--------------------------------------------|
G:----------------------------2----------------------------------------------|
D:----------------------------2h4--------------------------------------------|
A:4--5--7--5--4-----------5---0----------------------------------------------|
E:---------------7--4--5-----0-----------------------------------------------|

Part Two | Part Three
e:-|--------------10-|-7--55--3--333-3--3--3-|
B:-|-5p7h5-----------|-7--55--3--333-3--3--3-|
G:-|--------7--------|-7--66--4--444-4--4--4-|
D:-|-----------0-----|-9--77--5--555-5--5--5-|
A:-|-----------------|-----------------------|
E:-|-----------------|-----------------------|




Ваше мнение



Капча