Date: Thu, 5 Oct 1995 14:48:59 -0500 (CDT)
From: Mike Farmer
Subject: Trip Along by Tripping Daisy.intro tab

Here is, again, only the introduction, although it shouldn't take me too
much longer to finish the song. It is really simple and requires no
special tuning:)! Here is the intro/verse for Trip Along by Tripping
Daisy, alternating between the two parts:
G F F#
D-----5-------5--------3---------4--
A---5---5---5---5----3---3-----4---4
E-3-------3-------\1--------/2------
Then, the next few time through:
G F F#
e---------3-----------3----------------------
B---------3-----------3----------------------
G-------4-----------4-----------2---------3--
D-----5-----5-----5-----5-----3---3-----4---4
A---5-----------5-----------3---------4------
E-3-----------3-----------1---------2--------
Well, the way I pick it out may not be exactly right, but it's close
enough to get the sound. Just pick through a G twice, and F once and
then an F# once. I don't know how long the chorus, etc. will take me, I
may never quite get them, who knows? Send any help, comments, flames,
whatever to Mike Farmer





Ваше мнение



Капча