Date: Tue, 3 Oct 1995 14:48:39 -0500 (CDT)
From: Mike Farmer
Subject: same dress, new day tab from tripping daisy-tab

This is the introduction to "Same Dress, New Day" by Tripping Daisy.
Again, I have a lot of input on this one from David Lowenfels
, but I figured out a good deal:) The tuning is
strange on this song(techinically, you don't have to, but it's a lot
easier if you do), the G string is tuned down to a Gb.
Guitar 1: Play this 4x:
Gb--0---0---0-------0---0---0----x3 -----0--x4
D-----0-------0-------0---0---0-- ---8---8
A-2-------3-----0-5-------------0 -9------
After the 4th, play Gb-----0--x2 -----0----------
D---8---8 ---7---7---7----
A-9------ -8-------8---8-7
If you choose not to detune, it goes:
D---4---4---4-------4---4---4--
A-2---5---3---5-0-5---5---5---0 etc.

The other part of the intro is the part that I had no idea on, it was all
figured out by David. You have to crank your chorus through the roof to
get it to be the high pitch, almost female voice effect.
Guitar 2:
A----2------4---5---4---4
E-\3---3-/5---5---5---5--.
That is all we have figured out, but I am working on the rest. Send
comments, etc. to either [email protected](Mike Farmer) or
to [email protected](David Lowenfels). Tab transcribed by Mike Farmer.





Ваше мнение



Капча