Song Title-Wear Me Down
Artist-Treble Charger
Tabbed by Jd_dude
Intro-
|---------------------------------
|-----------------2-2-2-2-2-2-2-2-
|-2-2-2-2-4-4-4-4-----------------
|---------------------------------
verse
|----------------------------------------------------------------
|----------------------------------------------------------------
|2-2-2-2-2-2-2-2-2-2-2-2-2-2-2-2-0-0-0-0-0-0-0-0-4-4-4-4-4-4-4-4-
|----------------------------------------------------------------
pre prechorus
|--------------------------------
|--------------------------------
|2-2-2-2-0-0-0-0---------0-0-0-0-
|----------------0-0-0-0---------
prechorus
|------------------------------------------------------------------
|------------------------------------------------------------------
|------------------------------------------------------------------
|4-4-4-4-4-4-4-4-5-5-5-5-5-5-5-5-4-4-4-4-4-4-4-4-4-2-2-2-2-2-2-2-2-
chorus
|--------------------------------
|--------------------------------
|2-2-2-2-0-0-0-0-----------------
|----------------0-0-0-0-0-0-0-0-
bridge
|--------------------------------
|--------------------------------
|2-2-2-2-2-2-2-2-----------------
|----------------0-0-0-0-0-0-0-0-
2nd bridge
|---------------------------------
|-----------------2-2-2-2-2-2-2-2-
|-2-2-2-2-4-4-4-4-----------------
|---------------------------------
order of song
intro 2x
verse 2x
pre pre chorus 2x
pre chorus 1x
chorus 4x
verse 2x
pre pre chorus 4x
pre chorus 1x
chorus 4x
bridge 4x
2nd bridge 6x
chorus 8x
====





Ваше мнение



Капча