Band: Treble Charger
Song: Sick Friend Called
Tabbed by: Jon Luyckx (http://twofold.tsx.org)

chords used:
F# - 244xxx
G - 3x0033
A - x02220
Bm - x24432
D - xx0232

intro:

E|----------------------------------------------------------------|
B|----------------------------------------------------------------|
G|-16-16-16-16-16-14-14-14-14-14-14-14-11-11-11-11-11-9-9-9-7-7-7-|
D|-0--0--0--0--0--0--0--0--0--0--0--0--0--0--0--0--0--0-0-0-0-0-0-|
A|----------------------------------------------------------------|
E|----------------------------------------------------------------|

E|-------------------------------------------------------------------|
B|-------------------------------------------------------------------|
G|-16-16-16-16-16-14-14-14-14-14-14-14-11-11-11-11-11-12-12-12-9-9-9-|
D|-0--0--0--0--0--0--0--0--0--0--0--0--0--0--0--0--0--0--0--0--0-0-0-|
A|-------------------------------------------------------------------|
E|-------------------------------------------------------------------|

verse:

E|--------------------------------------------------------|
B|--------------------------------------------------------|
G|-9-9-9-9-9-11-11-11-11-11-11-11-7-7-7-7-7-4-4-4-4-4-4-2-|
D|-0-0-0-0-0-0--0--0--0--0--0--0--0-0-0-0-0-0-0-0-0-0-0-0-|
A|--------------------------------------------------------|
E|--------------------------------------------------------|

pre-chorus: F#

chorus:

G D Bm A
G D Bm A
G A D Bm

outro:

E|-----------------------------------------------|
B|-----------------------------------------------|
G|-9-9-9-9-9-7-9-9-9-9-9-7-/16-16-16-16 play--| 4X
D|-0-0-0-0-0-0-0-0-0-0-0-0--0--0--0--0-----------|
A|-----------------------------------------------|
E|-----------------------------------------------|

E|------------------------------------------------|
B|------------------------------------------------|
G|-11-11-11-11--14-14-14-14--16-16-16-16 play--| 4X
D|-0--0--0--0---0--0--0--0---0--0--0--0-----------|
A|------------------------------------------------|
E|------------------------------------------------|





Ваше мнение



Капча