mercury smile
treble charger

wait 2 measures

verse/solo
|---------------------------------------------------------
|---------------------------------------------------------
|---------------------------------------------------------
|2--2-2-2-2-2-2-5--5-5-5-5-5-5-0--0-0-0-0-0-0-0-0-0-0-0-0-

prechorus interlude
|-----------------------------
|-----------------------------
|4--4-4-5--5-5--------2-4-2-2-
|--------------5--5-5---------

chorus
|------------------------------------------------
|------------------------------------------------
|------------------------5-5-5-5-4-4-4-4-5-5-5-5-
|2-2-2-2-2-2-2-2-5-5-5-5-------------------------

afterchorus interlude
/------------2x-------------
|-----------------------------|------
|-----------------------------|------
|4--4-4--4-4-4-5--5-5--5-5-5--|7-7-7-
|-----------------------------|------





Ваше мнение



Капча