This is basically the whole song. My attempt at the solo is pretty weak though,
so any corrections on that part or any other part of the song is welcome. Most of
this is tabbed for the main guitar sound that you hear. But I wrote in some Guitar 2
parts, but don't bet your life on them. And i don't know all the words so there
are no lyrics.

Eb Ab Db Gb Bb eb

s = Slide
b = Bend
h = Hammer on
p = Pull off

Intro (Riff 1)
e-------------------------------------------
B------------------------------------------- Repeat 4x
G------------------------------------------- After second time i
D------------------------------------------- think Guitar 2 comes
A------7s6---2h4---2h4-----7s9-----9s11----- in and plays the riff
E--0-0-----0-----0-----0-0-----0-0---------- as well.

Verse
e-------------------------------
B-------------------------------
G------------------------------- x4
D---2-2-2-2-2-2-2-2-2-2-2-5-5---
A---2-2-2-2-2-2-2-2-2-2-2-5-5---
E---0-0-0-0-4-0-0-0-0-0-0-3-3---

Pre-Chorus
e-----------------------------------------------------------------
B-----------------------------------------------------------------
G-----------------------------------------------------------------
D--7-7-7-7-7-7-7-7-6-6-6-6-6-6-6-6-7-7-7-7-7-7-7-7-9-9-9-9-9-9-9-9 x2
A--7-7-7-7-7-7-7-7-7-7-7-7-7-7-7-7-7-7-7-7-7-7-7-7-9-9-9-9-9-9-9-9
E--5-5-5-5-5-5-5-5-4-4-4-4-4-4-4-4-5-5-5-5-5-5-5-5-7-7-7-7-7-7-7-7

Chorus (I only wrote out each chord once but sometimes it sounds like they're
struck twice. Either way sounds good.)
e------------------------------------------
B------------------------------------------
G--9--4-5-6------------9--4-5-6--7-7-7-7--- x2
D--9--4-5-6--4-4-4-4---9--4-5-6--7-7-7-7---
A--7--2-3-4--4-4-4-4---7--2-3-4--5-5-5-5---
E------------2-0-2-0-----------------------

Bridge
e-----------------------------------
B-----------------------------------
G-----------------------------------
D-----------------------------------
A--7-7-7-7-7-7-7-7-7-7-7-7-7-7-7-7--
E-----------------------------------

e-----------------------------
B-----------------------------
G--------7-6-5-5-5------------ x4
D--2-2-2-7-6-5-5-5-6-7-7-7-6--
A--2-2-2-5-4-3-3-3-6-7-7-7-6--
E--0-0-0-----------4-5-5-5-4--

Solo Guitar 2 (comes in after second time you play bridge above)
e-----------------------------------------------------------------
B----------------------12-15-17b19--------------------------------
G------9-12-13b14-------9-12-13b14-------------------------------
D-----------------------------------------------------------------
A-----------------------------------------------------------------
E-----------------------------------------------------------------

Bridge ctd.
e-----------
B-----------
G--9-8-9----
D--------9--
A-----------
E-----------

e-----------------------------------------------------------------
B-----------------------------------------------------------------
G------------------------------------------------------------5-5-5
D--2-2-2-2-2-2-2-2-6-6-6-6-6-6-6-6-7-7-7-7-7-7-7-7-7-7-7-7-7-5-5-5 x4
A--2-2-2-2-2-2-2-2-6-6-6-6-6-6-6-6-7-7-7-7-7-7-7-7-7-7-7-7-7-3-3-3
E--0-0-0-0-0-0-0-0-4-4-4-4-4-4-4-4-5-5-5-5-5-5-5-5-5-5-5-5-5------

Last time you play riff above, instead of playing the C5 chord at the end, keep
playing the A5 chord until the chorus starts again.

Play Chorus again twice and then play Riff 1 until it's done.

Well that's it. Hope it's easy to follow. Play like you mean it people, it's not
a hard song.





Ваше мнение



Капча