How She Died
Maybe It's Me
Treble Charger
Bass Tab
tabbed by: jd dude

intro/verse/during guitar solo:
|---------------------------------
|---------------------------------
|-3-3-3-3-------------------------
|---------O-O-O-O-1-1-1-1-4-4-4-4-

Interlude(verse and chorus)

|---------------------------------
|---------------------------------
|-6-6-6-6-6-------6-6-6-6-6-6-6-6-
|---------------------------------

chorus
|---------------------------------
|---------------------------------
|-----------------6-6-6-6-6-6-6-6-
|-6-6-6-6-4-4-4-4-----------------

interlude 2(chorus and verse 2)
|---------------------------------
|---------------------------------
|---------------------------------
|-O-O-O-O-1-1-1-1-3-3-3-3-3-3-3-3-

bridge 1 (i cant stand to agonize...)

|--------------------------------- |---------------------------------
|--------------------------------- 2x |---------------------------------
|---------6-6-6-6----------------- |---------6-6-6-6-----------------
|-8-8-8-8---------6-6-6-6-6-6-6-6- |-4-4-4-4---------6-6-6-6-6-6-6-6-

|---------------------------------
|---------------------------------
|---------------------------------
|-4-4-4-4-4-4-4-4-3-3-3-3-3-3-3-3-





Ваше мнение



Капча