INTROVERSE 1

Gtr 1 [Riff 1A]
e|------------------------------------------------------|
B|-------0------------0------------0-------------0------|
G|-----4---4--------2---2------------0-------------2----|
D|---2-------2----2-------2------2------2------2------2-|
A|-4------------0--------------2-------------0----------|
E|---------------------------0-------------2------------|

Gtr 2 [Riff 2A]
e|-------------------------------------------------|
B|-----------------------------8--5--6-------------|
G|-9p7-5--------5--7--9--5--7-----------7--9--5----|
D|-----------7-----------------------------------7-|
A|-------------------------------------------------|
E|-------------------------------------------------|

Gtr1 [Riff 1B]
e|-----4------5-4-------|
B|---5---5--------5-----|
G|-2-------2------------|
D|----------------------|
A|----------------------|
E|----------------------|

CHORUS
Guitar 1 [Riff 1C]
e|-----------------------------------------------|
B|-----------------------------------------------|
G|-6-6-6-6-6-6-9-9-9-9-9-9-----------------------|
D|-6-6-6-6-6-6-9-9-9-9-9-9-9-9-9-9-9-4-4-4-4-4-4-|
A|-4-4-4-4-4-4-7-7-7-7-7-7-9-9-9-9-9-4-4-4-4-4-4-|
E|-------------------------7-7-7-7-7-2-2-2-2-2-2-|

Guitar 2 [Riff 2C]
e|-------------------------------------------------|
B|-----7h9-7---------------------------------------|
G|-5-5-------7-9-----------------------------------|
D|-------------------------------------------------|
A|-------------------------------------------------|
E|-------------------------------------------------|

VERSE 2

Gtr1 [Riff 1D] [Riff 1E] [Riff 1F]
e|-----0-----0-----|----------|-----------------|
B|-------------0---|-------0--|-------0-------0-|
G|---4-----4-----4-|-----2----|-----------------|
D|-2-----2---------|---4------|-----2-------2---|
A|-----------------|-2--------|---4-------4-----|
E|-----------------|----------|-----------------|

LYRICS & STRUCTURE

[Riff 1A]
[Riff 2A]
Save your breath
Don't waste your time
I can tell what's on your mind
No need to mention
What we both know
It's quite a time [Riff 1B]
you picked to tell me
It's quiet time and mostly lonely
And now it's time to save the past
We know so well

[CHORUS] [Riff 1C]
It's not funny
We're not laughing like we did [Riff 2C] before
And it's not funny
It's just hurting
More and more

[Riff 1D] [Riff 2A]
[Riff 1E]
Take your time to figure out
It's not that plain to see
And if you need
Someone to blame
Than you can blame it all on me [Riff 1F]
It's not the time you picked to tell me
It's more the way you want to show me
And that's all fine

[CHORUS]
It's not funny
We're not laughing like we did [Riff 2C] before
And it's not funny
It's just hurting
More and more [Riff 2C]
You never told me
You never showed me
And now we're running
Back and forth between two lines
And now all the little things
Are no concern at all

[Solo1]

Say what you want
We know that it's true (all brand new)
Now that we're older now
Seems like it's all brand new
And we've never heard it before

[CHORUS]
its not funny
were not laughing like we did [Riff 2C] before
and its not funny
its just hurting
more and more [Riff 2C] [Solo2]
you never showed me
you never told me
and all the little things
you meant to say before
show me, show me
all the little things you said before [outro]

[email protected]





Ваше мнение



Капча