Artist: Treble Charger
Song: Cheat Away
Album: Wide Awake, Bored

This song is relativly easy. It's beat to have the recording so that you know
when to strum.

Intro
(I'm pretty sure the background part isn't right)

Background Guitar
E|-O-5-O-4-O-5-O-4-O-5-O-4-O-5-O-4-O-5-O-4-O-5-O-4----|(REPEAT UNTIL CHORUS)
B|----------------------------------------------------|
G|----------------------------------------------------|
D|----------------------------------------------------|
A|----------------------------------------------------|
E|----------------------------------------------------|

Rythym guitar
E|-------------------------------------------------------|
B|-------------------------------------------------------|
G|--------------------------------------7-7--4-4--7-7----|
D|------------------7-7--7-7--7-7--7-7--7-7--4-4--7-7----|(REPEAT 5 TIMES (I THINK)
A|------------------7-7--7-7--7-7--7-7--5-5--2-2--5-5----|
E|------------------5-5--5-5--5-5--5-5-------------------|

PRE-CHORUS

E|-------------------------------------------------------------------------------------------------------------|
B|-------------------------------------------------------------------------------------------------------------|
G|------------------------------7-7-7-7-7-7--4-4-4-4-4-4------------------------------9-9-9-9-9-9--7-7-7-7-7-7-|
D|---7-7-7-7-7-7-7-7-7-7-7-7----7-7-7-7-7-7--4-4-4-4-4-4----7-7-7-7-7-7-7-7-7-7-7-7---9-9-9-9-9-9--7-7-7-7-7-7-|
A|---7-7-7-7-7-7-7-7-7-7-7-7----5-5-5-5-5-5--2-2-2-2-2-2----7-7-7-7-7-7-7-7-7-7-7-7---7-7-7-7-7-7--5-5-5-5-5-5-|
E|---5-5-5-5-5-5-5-5-5-5-5-5--------------------------------5-5-5-5-5-5-5-5-5-5-5-5----------------------------|
PALM MUTED PALM MUTED

CHORUS

E|--------------------------------------------------------------------------------------|
B|--------------------------------------------------------------------------------------|
G|-----------------------9-9-9-9-9-9-9-9-9-9--4-4-4-4-4-4-4-4-4-4--7-7-7-7-7-7-7-7-7-7--|
D|--7-7-7-7-7-7-7-7-7-7--9-9-9-9-9-9-9-9-9-9--4-4-4-4-4-4-4-4-4-4--7-7-7-7-7-7-7-7-7-7--|
A|--7-7-7-7-7-7-7-7-7-7--7-7-7-7-7-7-7-7-7-7--2-2-2-2-2-2-2-2-2-2--5-5-5-5-5-5-5-5-5-5--|
E|--5-5-5-5-5-5-5-5-5-5-----------------------------------------------------------------|

THE REST OF THE SONG IS PRETTY MUCH BASED ON THOSE CHORDS.

pEACE OUT!

tHIS IS ALL MY OWN WORK TRANSCRIBED AND TYPED BY ME. eOGHAN DEERY.

[email protected]





Ваше мнение



Капча