Song: CASE IN FACT
Band: TREBLE CHARGER
Album: SELF=TITLE

Tabbed by Marcel Piffard
http://members.xoom.com/treb_charger/

e|--------------------------|
B|----3------0------1-------|
G|--5---5--2---2--0---0-0~--|
D|--------------------------|
A|--------------------------|
E|--------------------------|

E|--1----4--|
B|--1----4--|
G|--3----6--|
D|--3----6--|
A|----------|
E|----------|

E|--------|
B|--------|
G|--------|
D|--6--5--|
A|--6--5--|
E|--4--3--|
8x each

chorus
E|----------------|
B|----------------|
G|--7--10---------|
D|--7--10--10--8--|
A|--5--8---10--8--|
E|---------8---6--|
8x each

riff
E|-------------------|-------|---------------|
B|-------------------|-------|--7--12--3--5--|
G|-------------------|-------|--9--14--4--4--|
D|-------------------|-------|---------(4x)--|
A|--5-7----8-7-5--5--|--7_9--|---------------|
E|---(7x)------------|-------|---------------|

Lyrics

If the phone doesn't ring, it's me
I know things won't work out, don't beleive
There's a glass between something you saw before
And the wrong impression left, leaves no more

Tell a lie, case in fact

I feel the same, I'm walkin' no one in my place
I need to know, by the end
Things turned out wrong, I know

When the things you've done won't lie awake
I think I'd be on the first mistake
No one understand this badly, I might as well
You might guess the same yourself, But it's so hard to tell

If you like I'll be more exact

I feel the same, I'm walkin' no one in my place
I need to know, by the end
Things turned out wrong, I know

If you'll agree I'll make a pact

I feel the same, I'm walkin' no one in my place
I need to know, by the end
Things turned out wrong, I know





Ваше мнение



Капча