Intro:
1|---------0--------1--0---------0--------------|
2|--1---3-----3--0--------1---3-----3--0--------|
3|--2---------1-----------2---------1-----------|
4-----------------------------3--2--|
5|--0---------------------0---------------------|
6-0---------------------0-----------|
1|--0------0-----------1--0---------0--------------|
2|------3-----3--0-----------1---3-----3--0--------|
3|--2---------1-----1--------2---------1-----------|
4--------------------------------3--2--|
5|--0------------------------0---------------------|
6-0------------------------0-----------|

Am E
Я иду по луне
Am E
Никуда уже не спешу
Am E
Я наверное во сне
Am E
Потому что я не дышу
Припев:
Am E Am E
Я не дышу не дышу потому что
Am E Am E
Я не дышу потому что так нужно
Тишина тишина
Люди спят но не спит луна
Только я и она
Зеркала твоего окна
Припев.
G Fm
Лишь бы душа летала
G Fm
Лишь бы была душа
G Fm
Лишь бы душа летала
G Fm
Тихо и не дыша
Припев.




Ваше мнение



Капча