Настройка -eBGDAE для басса -GDAD!!!!!
СОЛО
---------------------------
-8-56-6-3-56856-5683-------
---------------------------
---------------------------
---------------------------
---------------------------

Рифф
Dm F A# G
----1-----1---1-------1----1---1------1----1---1-----1---1---1----
------------------------------------------------------------------
--2----2----2-------2----2---2------3----3---3------0---0--0------
-0----0------------3----3----------3----3----------0---0----------
------------------------------------------------------------------
------------------------------------------------------------------

басс(припев,куплет)
Dm F A# G
G----------------------------------------------
D----------------------------------------------
A----------------------------------------------
D-0-00-0-03-33-3-38-88-8-855-55-573------------
басс
Dm F A# G
B темно красную закат прольется весь за тонкие стекла
Заключение ума допей до дна теперь уже можно
Золотистая пыльца одна цена продать по дороже
чуть жива едва дыша звола тебя но мне не поможет
(вступает рифф)
Dm F A# G
не поможет
(вокал без басса,гитар.)
Я живу для тебя и я за тебя умру
Dm F A# G
Бьет по глазам....адреналин....переживем....ну и черт с ним

Молоточками стучать покорно ждать однажды устала
не могу или нельзя хочу понять как это достало
Я живу для тебя и я за тебя умру
Бьет по глазам адреналин переживем ну и черт с ним
(с сосло)
Спасибо.




Ваше мнение



Капча