Tabbed by: Alex Pavlov
Tuning: Dropped D (D,A,D,G,B,E)
Yeah, it's me again with yet another Three Days Grace tab. Awesome guitar in this
song, I repeated a lot of the intro because some the the parts were slightly
different. Enjoy. I'll post the remaining songs in a couple of days, and finally,
there'll be the whole album.
Intro
|----------------------------------------------------------
|----------------------------------------------------------
|----------------------------------------------------------
|---------------------------------------------------------- (x3)
|----------------------------------------------------------
|-0-10-12-10-12-10-0-10-12-10-12-10-0-10-12-13-------------
|--------------------------------------------
|--------------------------------------------
|--------------------------------------------
|--------------------------------------------
|--------------------------------------------
|-0-10-12-10-12-10-0-10-12/------------------
|--------------------------------------------
|--------------------------------------------
|--------------------------------------------
|-0-10-12--12-10-0-10-12--12-10--10--12h13--- (x4)
|-0-10-12--12-10-0-10-12--12-10--10--12h13---
|-0-10-12--12-10-0-10-12--12-10--10--12h13---
|--------------------------------------
|--------------------------------------
|--------------------------------------
|-0--0--12-10--0-12--0-10--10-12h13---- (x3)
|-0--0--12-10--0-12--0-10--10-12h13----
|-0--0--12-10--0-12--0-10--10-12h13----
|------------------------------------------
|------------------------------------------
|------------------------------------------
|-0--0--12-10--0-12/-----------------------
|-0--0--12-10--0-12/-----------------------
|-0--0--12-10--0-12/-----------------------
Verse
|---------------------------------------------
|---------------------------------------------
|---------------------------------------------
|-6--6--6--6--6--6--6--7----------------------
|-5--5--5--5--5--5--5--5----------------------
|-0-------------------------------------------
(x4)
(with tremolo)
|--18~--18~--18~--18~--18~--18~--18~-----------
|----------------------------------------------
|----------------------------------------------
|----------------------------------------------
|----------------------------------------------
|----------------------------------------------
|------------------------------------------
|------------------------------------------
|--/9--------------------------------------
|--/10--------7-7-7-7-8p7-7-10-------------
|--/8---------7-7-7-7-8p7-7-10-------------
|-------------7-7-7-7-8p7-7-10-------------
Chorus
|------------------------------------------------------------------------
|------------------------------------------------------------------------
|------------------------------------------------------------------------
|-0--0--7-7----10----10-10--8-8-5-5--5-5--5-3---3-1---7-7-7-7-8p7-7-10---(x2)
|-0--0--7-7----8-----8--8---8-8-5-5--5-5--5-3---3-1---7-7-7-7-8p7-7-10---
|-0--0--7-7----8-----8--8---8-8-5-5--5-5--5-3---3-1---7-7-7-7-8p7-7-10---
Verse
Chorus
Bridge
|------------------------------------------------
|------------------------------------------------
|------------------------------------------------
|-0-10-12-10-12-10-0-10-12-10-12-10-0-10-12-13--- (x2)
|-0-10-12-10-12-10-0-10-12-10-12-10-0-10-12-13---
|-0-10-12-10-12-10-0-10-12-10-12-10-0-10-12-13---
|--------------------------------------------
|--------------------------------------------
|--------------------------------------------
|-0-10-12--12-10-0-10-12--12-10--10--12h13--- (x2)
|-0-10-12--12-10-0-10-12--12-10--10--12h13---
|-0-10-12--12-10-0-10-12--12-10--10--12h13---
|---------------------------------------------------------------------------
|---------------------------9-9-9-10-10-10-10-10-10-10-10-10-10-10^-9-------
|---------------------------------------------------------------------------
|---6--6--6--6--6--6--7--------------------------------------------------(x2)
|---5--5--5--5--5--5--5-----------------------------------------------------
|---------------------------------------------------------------------------
(you can bend the 9 instead)
|---------------------------------------------------
|---------------------------------------------------
|---------------------------------------------------
|--3-----5------3-------7-7-7-7---------------------
|--3-----5------3-------7-7-7-7---------------------
|--3-----5------3-------7-7-7-7---------------------
Chorus
Outro
|------------------------------------------------
|------------------------------------------------
|------------------------------------------------
|-0-10-12-10-12-10-0-10-12-10-12-10-0-10-12-13--- (x2)
|-0-10-12-10-12-10-0-10-12-10-12-10-0-10-12-13---
|-0-10-12-10-12-10-0-10-12-10-12-10-0-10-12-13---
|--------------------------------------------
|--------------------------------------------
|--------------------------------------------
|-0-10-12--12-10-0-10-12--12-10--10--12h13--- (x2)
|-0-10-12--12-10-0-10-12--12-10--10--12h13---
|-0-10-12--12-10-0-10-12--12-10--10--12h13---
|---------------------------------------------
|---------------------------------------------
|---------------------------------------------
|---------0-12-10-0-10-12--12-10--10--12h13---
|---------0-12-10-0-10-12--12-10--10--12h13---
|---------0-12-10-0-10-12--12-10--10--12h13---
|--------------------------------------------
|--------------------------------------------
|--------------------------------------------
|-0-10-12--12-10-0-10-12--12-10--10--12h13---
|-0-10-12--12-10-0-10-12--12-10--10--12h13---
|-0-10-12--12-10-0-10-12--12-10--10--12h13---
|---------------------------------------------
|---------------------------------------------
|---------------------------------------------
|-------0-0-12-10-0-10-12--12-10--10--12h13--- (x3)
|-------0-0-12-10-0-10-12--12-10--10--12h13---
|-------0-0-12-10-0-10-12--12-10--10--12h13---
|----------------------------------------------------
|----------------------------------------------------
|----------------------------------------------------
|-------0-0-12-10-0-10-12--12-12-12-10-10-10-12h13---
|-------0-0-12-10-0-10-12--12-12-12-10-10-10-12h13---
|-------0-0-12-10-0-10-12--12-12-12-10-10-10-12h13---
|---------------------------------------
|---------------------------------------
|---------------------------------------
|-0-0-0--12-10--0-12--0-10--10-12h13---- (x4)
|-0-0-0--12-10--0-12--0-10--10-12h13----
|-0-0-0--12-10--0-12--0-10--10-12h13----
Email me at [email protected]




Ваше мнение



Капча