From [email protected] Sun May 4 10:29:02 1997
Date: Sun, 16 Mar 1997 16:27:00 +0100 (MET)
From: Calle Aasman
To: [email protected]
Subject: TAB: 'Friends' by 'The Wannadies'
Wannadies - "Friends" from the album Bagsey me
Tabbed by Calle Aasman ([email protected])
Visit my homepage with all living OLGA-sites listed:
http://www.mdstud.chalmers.se/~md4calle/
Please mail corrections, suggestions etc. to me.
If you got any wannadies tabs, please mail me!!!!!!!!!!!!!!
The chords inside brackets aren't acutally played, but I think it's get
a more powerful sound to play it.
Intro:
Guitar1: Intro (part2)
(4 times) (4 times)
DD DD DD DDD D (C#) C G (G#) A
Guitar2:
CCC CCC
-------------------------------------------------------------------------------
------------------------------------77-6-5555-6-77-----------------------------
----------------------------------------------------77-8-9999-8-77-------------
-------------------------------------------------------------------------------
-------------------------------------------------------------------------------
-------------------------------------------------------------------------------
verse:
D (C#) C D (C#) C
we go - to places
D (C#) C D (C#) C
where everything feels amazing
G (G#) A
no need to pretend
G (G#) A
we know we're good friends
D A
and that's the way it should be
D (C#) C D (C#) C
then - it's over
D (C#) C D (C#) C
a beautiful girl absorbed you
G (G#) A
for you it's a game
G (G#) A
and I'm in your way
G (G#) A A
I have to make sure - I'm not ignored
Play this 2 times during the chorus:
guitar1:
D G A D G A
guitar2:
|-------------------------------------------------------------------|----------
|*-----------------------------------------------------------------*|----------
|------11--9--7-----------7-----------11--9--7-----------7--9-------|----------
|---7------------9--7--9-----7------------------9--7--9-------------|----7-----
|*-----------------------------------------------------------------*|----------
|-------------------------------------------------------------------|----------
Guitar1:
(4 times)
D (C#) C
Guitar2:
------------------
--77-6-5555-6-77--
------------------
------------------
------------------
------------------
Verse 2: (same as Verse 1)
(and after the chorus it goes:)
C
(and after that bass only 4 times)
(one, two, three, four!)
and then instrumental intro part 2, with this slightly changed at the end:
guitar 2:
-------------------------------------------------------------------------------
-------------------------------------------------------------------------------
----------99-88-99-10-10-11-7--------------------------------------------------
-------------------------------------------------------------------------------
-------------------------------------------------------------------------------
-------------------------------------------------------------------------------
chorus
(8 times)
D (C#) C
ends on D




Ваше мнение



Капча

Рекомендуем