Rearranging Deck Chairs on the Titanic
Refreshments
from David Cushman, http://gladstone.uoregon.edu/~dcushman/guitar.html
Intro:
E B Bb C#m B A
e:--7--7--6--4--7-------------------|
B:--9--7--6--5--7-------------------|
G:--9--8--7--6--8---------------2-2-|
D:--9--9--8--6--9--7----7-7-----2-2-|
A:--7--9--8--4--9--7-5h7--7-------0-|
E:-----7--6-----7---------5-0h2-----|
Evii Bvii Bbvi C#m Bvii Av
E B Bb C# B A B
E
Another day, another debt
B
How much worse can it get
C#m
A whole lot worse it's safe to bet
B
Can you see the light, not yet
E
Didn't feel much better cause that registered letter
B
Got to the old lady and it really upset her
C#m
Said that I'm a criminal debtor
B A
I owe, I owe, I know, I know
E B
Rearranging deck chairs on the Titanic
C#m
It doesn't matter what I do
B
She's gonna keep on sinking
E B
Rearranging deck chairs on the Titanic
C#m B
I realize now, my time was better spent drinking
Solo:
E B Bb C#m B A (fill)
E B Bb C#m B A B
E
The lipstick on my collar
B
Really made her holler
C#m
And I'm down to my last dollar
B
And I'm out of cigarettes
E
Well the thing that seems so funny
B
I'm completley out of money
C#m
But the skies they still seem sunny
B
And I've gotten no regrets
E B
I've been rearranging deck chairs on the Titanic
C#m
It doesn't matter what I do
B
She's gonna keep on sinking
E B
Rearranging deck chairs on the Titanic
C#m B
I realize now, my time was better spent drinking
E B
Rearranging deck chairs on the Titanic
C#m
It doesn't matter what I do
B
She's gonna keep on sinking
E B
Rearranging deck chairs on the Titanic
C#m A
I realize now, my time was better spent drinking
A
Better spent drinking, better spent drinking, better spent drinking
E
Rearranging deck chairs on the Titanic
E D C#m B E
e:----------------------------0-|
B:----------------------------0-|
G:-9---7---4---4--------------1-|
D:-9-0-7-0-4-0-4-0------------2-|
A:-7-0-5-0-6-0-2-0-2-4-6-7----2-|
E:-------------------------0--0-|




Ваше мнение



Капча