#----------------------------------PLEASE NOTE---------------------------------#
#This file is the author's own work and represents their interpretation of the #
#song. You may only use this file for private study, scholarship, or research. #
#------------------------------------------------------------------------------##
#
Chords for Nada - The Refreshments
From Fizzy Fuzzy Big & Buzzy
I just got back from the Refreshments concert in toronto. incredible.
check them out if you have the chance... anyway, since i can't figure
out tab to save my life, i paid special attention when they played NADA
(it being my favourite song)... this is what he was playing...(forgive
the lack of most note names... i suck, remember? and this is my first
ever posting of a tab) :)
as always, read in notepad or something like that or it will look fucked up.
Nada - The Refreshments, as observed at the Horseshoe Tavern in Toronto
Ontario, 8.22.96
VERSE
-------------------------------------------------------------------|
1---------------------------------3--------------------------------|
0---------------------------------0--------------------------------|
3---------------------------------2--------------------------------|
3---------------------------------3--------------------------------|
-------------------------------------------------------------------|
I see the lightning from the storm down in mexico
(repeat until...)
CHORUS
Am G F C
---------------33333-----------11111-------0000-|
11111----------33333-----------11111-------1111-|
22222----------00000-----------22222-------0000-|
22222----------00000-----------33333-------2222-|
---------------22222-----------33333-------3333-|
---------------33333-----------11111------------|
There ain't no morals to this story at all
(repeat until)
F
1----1----1---1----1----1-----1----1----11111----------------|
1----1----1---1----1----1-----1----1----11111----------------|
2----2----2---2----2----2-----2----2----22222----------------|
3----3----3---3----3----3-----3----3----33333----------------|
3----3----3---3----3----3-----3----3----33333----------------|
1----1----1---1----1----1-----1----1----11111----------------|
wait ing for that cold black soul of mine to come alive
(repeat entire song 4 times i think)...
i didn't notice any other little finger changes in the chords, but
i could be wrong.. and this is live, so it might not match exactly
and i do suck, so take this with a grain of salt. suggestions
welcome at [email protected] .. requests will be laughed at.
laytre,
Yokes.
The World is a dazzling grey mosaic of roads and highways, occaisionally
interrupted by annoyingly vast expanses of water.
Out the ethernet, past the router, down the T1, nothing but net.
I Am a Canadian Elitist. 1/2 of #amnin's Resident Porn Kings


Ваше мнение



Капча