Don't Wanna Know
The Refreshments
from David Cushman, http://gladstone.uoregon.edu/~dcushman/guitar.html

Riff 1
E|-------0---------------0---------------0-------------0-------------|
B|-----------0---0-----0-----0---0-----------0---0---0-----------0---|
G|-------------1---1h2---------2-------4-----------------1h2-------2-|
D|-----2---------------------------4-----------4---2-----------2-----|
A|-------------------------------------------------------------------|
E|-0-----------------------------------------------------------------|
Riff 2
E|-----------------------------------------------------------------------|
B|-4----4h5----4----4h5----4-h-5--4-/-9----9h10---10h12----10----9-------|
G|-4----4------4----4------4------4-/-9----9-------9--------9----9----9--|
D|-----------------------------------------------------------------------|
A|-----------------------------------------------------------------------|
E|-----------------------------------------------------------------------|
E|-----------------------------------------------------------------------|
B|-9h10p9---------4----4h5----4----4h5----4-h-5--4-/-9----9h10----10h12--|
G|---------9-----4----4------4----4------4------4-/-9----9--------------|
D|-----------------------------------------------------------------------|
A|-----------------------------------------------------------------------|
E|-----------------------------------------------------------------------|
E|-12-----------------------------|
B|-12----10--10--10--10--9--------|
G|--------------------------9----|
D|--------------------------------|
A|--------------------------------|
E|--------------------------------|
Riff 3
E|-----------------------------------------------------------------------|
B|-4----4h5----4----4h5----4-h-5--4-/-9----9h10---10h12----10----9-------|
G|-4----4------4----4------4------4-/-9----9-------9--------9----9----9--|
D|-----------------------------------------------------------------------|
A|-----------------------------------------------------------------------|
E|-----------------------------------------------------------------------|
E|---------------------------------------------------12------------------|
B|-9h10p9---------4----4h5----4----4h5----4-h-5--4-/-----12--------------|
G|---------9-----4----4------4----4------4------4-/---------11b---11--9-|
D|-----------------------------------------------------------------------|
A|-----------------------------------------------------------------------|
E|-----------------------------------------------------------------------|
E|-----12----------------------------------------------------------------|
B|-----12----------------------9-h-10---9--------(9)7-------------------|
G|------9-------------9-h-11----------------------------------2---------|
D|-11--------9-h-11------------------------------------------------------|
A|-----------------------------------------------------------------------|
E|-----------------------------------------------------------------------|
^Singing starts
E|---------------------------0-------------------------------------------|
B|-------------------------------2--------4------4--------2-----2--------|
G|-2h4p2-------------------------------------4------------2-----2--------|
D|-2h4p2--0-----------------------------------------------2-----2--------|
A|-----------4----2----2h4---------(4)2-----------(2)--0-----0--2-h-4-|
E|-----------------------------------------------------------------------|
E|------------------------------0----------------------------------------|
B|------------------------------0----------------------------------------|
G|--------2---------------------1----------7-----------------------------|
D|-2-h-4-------4----4/6---------2----------7-----------------------------|
A|-------------2----2/4---------2----------5-----------------------------|
E|------------------------------0----------------------------------------|
Solo
E|-----(12)---------------------------------------------------------------|
B|-9~~~~-9----------------------------------------------------------------|
G|-9~~~~-9----9------9-------9---------------------------13--14---13---13-|
D|----------------11---11----9----11---------9-/-14--16-------------------|
A|--------------------------------11----9h11------------------------------|
E|------------------------------------------------------------------------|
E|------------------------------------------------------------------------|
B|----------17b-----17r-17--14h15p14----14--------------------------------|
G|-13/14-16--------------------------16----16b----16r--13h14p13----13-----|
D|--------------------------------------------------------------16----16b-|
A|------------------------------------------------------------------------|
E|------------------------------------------------------------------------|
E|------------------------------------------------------------------------|
B|------------------------------------------------------------------------|
G|-----------14------13h14p13-------13h14--14--14--14--13--x--------------|
D|-16~~~-14------14-------------14--14-----14--14--14--14--x---------9----|
A|------------------------------------------------------------7-/11-----11|
E|------------------------------------------------------------------------|
E|---------12-------------------------------------------------------------|
B|-10----------12----------------------------------------9---10--9--12b~r-|
G|-----------------11b~~r--9------9---------------9-/11-------------------|
D|----------------------------11------------------------------------------|
A|------------------------------------------------------------------------|
E|------------------------------------------------------------------------|
E|-----------------12----12-------------------12----12----12--------------|
B|-10--9-----9-/14----14----14-12-9-9h10---10----10----10----9-----------|
G|------------------------------------------------------------------------|
D|----------------------------------------------------------------------9h|
A|---------------------------------------------------------------7-/-11---|
E|------------------------------------------------------------------------|
E|------------------------------------------------------------------------|
B|------------9h10---9----------------------------------------------------|
G|---9-------------------11b---11---9---------9---------------------------|
D|11-----11-----------------------------11--------------------------------|
A|------------------------------------------------------------------------|
E|------------------------------------------------------------------------|
INTRO: Riff 1 x2
E Esus4
Ghost town on a Tuesday night
B(x24400) Asus2
That's OK I'm feeling alright
It's easier to grab a beer
Without a thousand people here
Riff 2
Talking to a friend of mine
Ask him and he'll say he's just fine
Talk of songs and inspiration
Dreams and financial desperation
Riff 3 (over):
C#m B
And I wonder where I'll be
Asus2 (F#m)
In a year
I'll Probably be
Sitting right here
C#m B
And if you know the answer
Dsus2
Don't tell me anyone
(tacet) E
Coz I don't wanna know....
Riff 2
Well we've been saying
We're gonna go somewhere for a long long time
But it never happens,
why's it never happen?
Riff 2
Yeah we've been praying
We're gonna get somewhere for a long long time
But it never happens
why's it never happen?
Riff 3
I wonder where I'll be in a year
Probably be sitting right here
And if you know the answer
Don't tell me anyone
Coz I don't wanna know...
Riff 1 x2
I don't wanna know, etc.
Solo




Ваше мнение



Капча

Рекомендуем