Why Don't You Love Me
The Red Hot Chili Peppers
Red Hot Chili Peppers
Intro
e-|-------------|
B-|-------------|
G-|-------------|
D-|--7----------|
A-|-------------|
E-|-----5-5-5---|
e|---- -0- -7-
B|---- -5- -5-
G|-14- -4- -7-
D|-12- -5- ---
A|---- --- ---
E|---- --- ---
Tablatures de Joe Le Tordu.




Ваше мнение



Капча