-------------------------------------------------------------------------------
Universally Speaking (Solo) - Red Hot Chili Peppers
-------------------------------------------------------------------------------
Tabbed by: Tim Bond
Tuning: Normal
e|--------------------------------------------------------------------------
B|--------------------------------------------------------------------------
G|--------------------------------------------------------------------------
D|---16--14--12--14------12--11--12--11--12------14------12--11--12---------
A|--------------------------------------------------------------------------
E|--------------------------------------------------------------------------
e|--------------------------------------------------------------------------
B|--------------------------------------------------------------------------
G|--------------------------------------------------------------------------
D|---14--(14)-----/7------7------7---7-----16--14--12--14-----12--11-------
A|--------------------------------------------------------------------------
E|--------------------------------------------------------------------------
e|--------------------------------------------------------------------------
B|--------------------------------------------------------------------------
G|--------------------------------------------------------------------------
D|--------------------------------------------------------------------------
A|---12--11--12-----14-----12--11--12------14--(14)/------/19-----19--------
E|--------------------------------------------------------------------------
e|--------------------------------------------------------------------------
B|--------------------------------------------------------------------------
G|--------------------------------------------------------------------------
D|---19--19-----16--14--12--14-----12--11-----12--11--12-----14-------------
A|--------------------------------------------------------------------------
E|--------------------------------------------------------------------------
e|--------------------------------------------------------------------------
B|--------------------------------------------------------------------------
G|--------------------------------------------------------------------------
D|---12--11--12-----11--(11)-----7-----7-----7--7-----7--5--4--5^---------
A|--------------------------------------------------------------------------
E|--------------------------------------------------------------------------
e|--------------------------------------------------------------------------
B|--------------------------------------------------------------------------
G|--------------------------------------------------------------------------
D|---0-----0-----------------7-------------------7/1------------------------
A|--------------------------------------------------------------------------
E|--------------------------------------------------------------------------

| / slide up
| slide down
| h hammer-on
| p pull-off
| ~ vibrato
| + harmonic
| x Mute note
^ Bend up
I think this sounds really good, but you'll just have to judge for yourself.
============================================================================




Ваше мнение



Капча