album: Mother's Milk
artist: Red Hot Chili Peppers
song: Subway to Venus(solo only)
submitted by: Cody Wilson,
I can't
believe that no one has tried to tab this solo,
let alone the song itself!This is an awesome one,a sort one,
and a sweet one,have fun learning it.I'm not sure if this
is perfect,but it's close enough to perfect.
Key:r=release bend
b=bend full step
h=hammer on
p=pull off
v=vibrato with bar(give your whamy bar a quick jiggle)
vv=(give the bar a couple of jiggles)
()=ghost note
Pre-solo: w/light distortion= guitar #1
e-----------------
B-----------------
G-77-7-7-7-777-777 PLAY THAT LICK 4 TIMES.
D-----------------
A-----------------
E-----------------
w/heavy distortion=guitar#2
e----------------
B----------------
G----------------
D---------------- PLAY THIS 4 TIMES.
A-7-------4-5-456
E---4-567--7-----

OUTRO-GUITAR SOLO: played by guitar#3 w/heavy distortion + chorus

hold bend hold bend these are slow bend and releases
e-----------------------------------------
B-10b~~~~~~vv-8b~~~~~~vv-5br--------------
G----------------------------7brbrbrbrbrbr
D-----------------------------------------
A-----------------------------------------
E-----------------------------------------
use pre-bar dips on all of these notes
e------------------------------------------------------
B-------------------------------v101010v888v555v888v555
G------------------------------------------------------
D-9-7-9-5v(5)5v(5)5----5-------5-----------------------
A-------------------5h7-5h7p5h7------------------------
E------------------------------------------------------

e-------------------------------------------------------
B-------------------------------------------------------
G-7h9---------------------------------------------------
D----7h9-5h7--------------------------------------------
A------------5h7----------------------------------------
E----------------5h7-3h5-0h3-0-3p0-0-3p0-3p0-0-3p0-0-3br

e-------------------------------------------
B-------------------------------------------
G--------------3bvvvvvvvv-10-10-------12-12
D-------------------------10-10-10-10-12-12
A--------------------------8--8-10-10-10-10
E-0-3p0-0-3p0-0------------------8--8-------




Ваше мнение



Капча