#----------------------------------PLEASE NOTE---------------------------------#
#This file is the author's own work and represents their interpretation of the #
#song. You may only use this file for private study, scholarship, or research. #
#------------------------------------------------------------------------------##
RedHotChiliPeppers
Stone Cold Bush
off mothers milk cd.
Intro

With Wah (+ = Treble)

- + + +
e----------6-----------6-----------6-|--------|---------6---------6-----
B----------6-----------6-----------6-|--------|---------6---------6-----
G------------------------------------|--------|-------------------------
D------------------------------------|--------|-------------------------
A------------------------------------|--------|------------------------
E-3-3-3-3-----3-3-3-3-----3-3-3-3----|-0-1-2--|-3-3-3-3----3-3-3-3------
use thumb
+ + + +

e------------------|---6-6-6-6-------------------------------------------
B------------------|---6-6-6-6-------------------------------------------
G------------------|-----------etc...------------------------------------
D------------------|-----------------------------------------------------
A----3-3-1--1--1-0-|-----------------------------------------------------
E--3--3----3-3-----|-----------------------------------------------------
With wah 'get up off your knees' bit etc.
(not sure this bit)
e------------------------------------------------------------------------
B------------------------------------------------------------------------
G------------------------------------------------------------------------
D--55555555-3333-2222-----5----------------------------------------------
A--33333333-1111-0000-----5----------------------------------------------
E-------------------------3----------------------------------------------
she's--- Stone- Cold Bush'

Then bass solo
then Guitar solo :-)

then.... + +
e-------------|----------------6----------------6---6-5-4-3-2------------
B----------7-5|--8-6-6-6-8-6-6-6--8-6-6-6-8-6-6-6------------------------
G----------7-5|----------------------------------------------------------
D-55555555-5-3|------------------------------------------------8-7-6-5---
A-33333333----|------------------------------------------------8-7-6-5---
E-------------|------------------------------------------------6-5-4-3---

** wanted ** pretty little ditty, sexy mexican maid. Mail me please.

Transcribed by Niall O' Gribin
[email protected]




Ваше мнение



Капча