#----------------------------------PLEASE NOTE---------------------------------#
#This file is the author's own work and represents their interpretation of the #
#song. You may only use this file for private study, scholarship, or research. #
#------------------------------------------------------------------------------#
From: lownegative ([email protected])
Tuning: EADGBe
First solo:
-----------------------------------------------------------------------------|
---13--10~------10--8~-------8--10~---10--12--13~----------------------------|
-----------------------------------------------------------------------------|
-----------------------------------------------------------------------------|
-----------------------------------------------------------------------------|
-----------------------------------------------------------------------------|
Second solo:
-----------------------------------------------------------------------------|
--15~-----15-13-10~---10--8~---13--10~----15~--17-13/10~-----13-10---13-10---|
-----------------------------------------------------------------------------|
-----------------------------------------------------------------------------|
-----------------------------------------------------------------------------|
-----------------------------------------------------------------------------|
--10-12-13~------------------------------------------------------------------|
-----------------------------------------------------------------------------|
-----------------------------------------------------------------------------|
-----------------------------------------------------------------------------|
-----------------------------------------------------------------------------|
-----------------------------------------------------------------------------|
Third solo:
---17~--17^-15~--15^-12~--12^-10~-----8/10-10/8-8/10-10~-10/8-----8---8------|
--------------------------------------------------------------10~---8~--10~--|
-----------------------------------------------------------------------------|
-----------------------------------------------------------------------------|
-----------------------------------------------------------------------------|
-----------------------------------------------------------------------------|
---------------------------------------------12^-12--------------------------|
-------/10~--10-10-10--------------------10~--------13--15--10~--13--10~-----|
--7^-5----------------7^-7-7^-5~-5-7-----------------------------------------|
-------------------------------------7~--------------------------------------|
-----------------------------------------------------------------------------|
-----------------------------------------------------------------------------|
this is my second solo transcription, but it's pretty good, when I play it
along with the song it sounds really great. Any comments are welcome.




Ваше мнение



Капча