A generally easy and great song by the Chili Peppers. Enjoy
Intro
w/ bar (slowly depress bar)
---------------9-7----8-----9---10--6------------------------------------------------------|
-----5/-7--------9---10---11--12--8--------------------------------------------------------|
-----7/-9----------------------------------------------------------------------------------|
-----------------------------------------------0-------------------------------------------|
-------------------------------------------------------------------------------------------|
-x-----------------------------------------------------------------------------------------|
Verse
--14-------------------------14-------7-----7------------------------------------------|
--15-------------------------15------10----9-------------------------------------------|
--14-------------------------14-------9-----9------------------------------------------|
--x------7-----9--------------x--------------------------------------------------------|
--14-------------------------14--------------------------------------------------------|
---------------------------------------------------------------------------------------|
Chorus
---------------------------------------------------------------------------------------|
-----------------------7------------------7---------------7------11---11---11-----7----|
-----------------------7------------------7---------------7-------9-----9----9------7--|
-------9-------9-------------9----9----------9-----9-----------10---10---10------------|
---------------------------------------------------------------------------------------|
---------------------------------------------------------------------------------------|
Bridge
-7----7-------4--------6------------------------------------------------------------|
-7----6-------3--------5------------------------------------------------------------|
-7----7-------4--------6------------------------------------------------------------|
------------------------------------------------------------------------------------|
------------------------------------------------------------------------------------|
------------------------------------------------------------------------------------|
Solo: (there are two guitars during the solo but im only tabbing one. It?ll sound, good trust me.)
-----------------------------------------------------------------------------------------|
-----------------------------------------------------------------------------------------|
-----------------------------------------------------------------------------------------|
--0-1-0-------0-1-0-------0-1-0----------------------------------------------------------|
-----------2------------2-----------2-0-----------0--------------------------------------|
--------------------------------------------2-1-2---------------------------- X 2-|
-------------------------------------------------------------------------------------------|
--7-8-7-------7-8-7-------7-8-7------------------------------------------------------------|
----------8------------8-------------8-7----------8----------------------------------------|
--------------------------------------------9-7-9------------------------------------------|
-------------------------------------------------------------------------------------------|
------------------------------------------------------------------------------- X 2-|
-----------------------------------------------------------------------------------------|
-----------------------------------------------------------------------------------------|
-----------------------------------------------------------------------------------------|
--2-3-2------2-3-2------2-3-2------------------------------------------------------------|
-----------4-----------4------------4--2----------2--------------------------------------|
--------------------------------------------4-3-4---------------------------- X 2-|
----------------------------------------------------------------12-------------|
----------------------------------------------------------------12b------------|
-------------------------------------------------------------------------------|
--0-1-0-----0-1-0------0-1-0---------------------------------------------------|
----------2-----------2-----------2--0-----------0-----------------------------|
-------------------------------------------2-1-2-------------------------------|




Ваше мнение



Капча