Right On Time - Bass Tab

By the Red Hot Chili Peppers
>From the album Californication
Tabbed by Robert Petersson [email protected]) and Eric Siljander ([email protected])

Verse 1
G|------------------| (x8)
D|------------------|
A|----9-7-----------|
E|--0-----9--x9-x9--|

Chorus 1
G|----------------------9-9----9-9------------------11-11----11-11--| (x4)
D|-----11-11---11-11------------------9-9----9-9--------------------|
A|-------------------7-7----7-7------------------9-9------9-9-------|
E|--9-9-----9-9--------------------7-7----7-7-----------------------|

Verse 2 (same as Verse 1)

Chorus 2
G|----------------------9-9----9-9------------------11-11----11-11--| (x4)
D|-----11-11---11-11------------------9-9----9-9--------------------|
A|-------------------7-7----7-7------------------9-9------9-9-------|
E|--9-9-----9-9--------------------7-7----7-7-----------------------|

G|-----11-11----11-11------14-14------14-14------9-9----9-9------16-16--|
D|----------------------------------------------------------------------|
A|--9-9------9-9------12-12------12-12-------7-7-----7-7----14-14-------|
E|----------------------------------------------------------------------|

Verse 3 (same as Verse 1)

Chorus 3 (same as Chorus 1)

Ending
G|-------------|
D|-------------|
A|----9-7------|
E|--0------9--|





Ваше мнение



Капча