t. See http://www.olga.net/faq/ for more information. #
From: [email protected]
Date: Sat, 26 Feb 2000 10:46:36 EST
Subject: r/red_hot_chili_peppers/porcelain.tab
PORCELAIN by the Red Hot Chili Peppers
from the album Californication (99)
---------------------------------------
Tabbed by [email protected]
VERSE1:
-----------------------------------------------------5--7--5--
--2--02--2------7--7--7--9--10------0--2--7--7--7--9----------
--------------2----------------9--6---------------------------
------------4-------------------------------------------------
--------------------------------------------------------------
--------------------------------------------------------------
--------------------
--9--7--9--10-------
--------------9--6--
--------------------
--------------------
--------------------
CHORUS1:
Bm ?* A Bm A Bm ?* A
--2---0---0---2---0---2---0---0------------------------------
--3---5---2---3---2---3---5---2---5--5---5--5---5--5--5--5---
--4---4---2---4---2---4---4---2---4----4------4--------------
--4-------2---4---2---4-------2------------------------------
-------------------------------------------------------------
-------------------------------------------------------------
--------------
--5--5--5--5--
--------------
--------------
--------------
--------------
* it means that I don't know the name of this chord...
VERSE2:
-------------------------------------------------5--7--5----------
--2--0--2---7--7--7--9--10------0--2--7--7--7--9---------9--7--9--
----------2----------------9--6-----------------------------------
------------------------------------------------------------------
------------------------------------------------------------------
------------------------------------------------------------------
-----------
--10-------
-----9--6--
-----------
-----------
-----------
CHORUS2:
Bm ? A Bm A Bm ? A=20
--2---0---0--0------2--2------0--0------2---0---0-----------------
--3---5---2----2----3----3----2----2----3---5---2--5--5--5--5--5--
--4---4---2------2--4------4--2------2--4---4---2--4--------------
--4-------2---------4---------2---------4-------2-----------------
------------------------------------------------------------------
------------------------------------------------------------------
Bm ? A Bm A Bm
------------------------------2---0---0---2---2-------5------2----
--5--5--5--5--5--5--5--5--5---3---5---2---3-----3---2---5----3----
------------------------------4---4---2---4-------4-------2--4----
------------------------------4-------2---4------------------4----
------------------------------------------------------------------
------------------------------------------------------------------
? A
--0---0-----------------------------------
--5---2--5--5--5--5--5--5--5--5--5--5--2--
--4---2--4--------------------------------
------2-----------------------------------
------------------------------------------
------------------------------------------
THE END
ENJOY!!




Ваше мнение



Капча