Artist: Red Hot Chili Peppers
Album : The Uplift Mofo Party Plan
Track : Organic Anti Beat-Box Band

tabbed by Daniel Jones

Intro and verse T = slap note | P = pop note

G|---------------------|------------------------|
D|-----2-2-------------|-----2-2--------5-----7-|
A|-------------------5-|------------------------|
E|--0-------0--3--5----|--0-------0--3-----5----|
T P P T T T T T P P T T P T P

G|---------------------|------------------------|
D|-----2-2-------------|-----2-2----------------|
A|-------------------5-|------------------------|
E|--0-------0--3--5----|--0------0--3--7--5--3--|
T P P T T T T T P P T T T T T

Chorus
x4 x2 x2
G|-----------|--------------|-------------------||
D|-------9-9-|--------12-12-|---------14-14-----||
A|-----------|--------------|-------------------||
E|--5/7------|--8/10--------|--10/12------------||
T P P T P P T P P Flea ya later




Ваше мнение



Капча