Intro
-7-7------------|-7-7------------|-7-7------------|-7-7-----------------------
-7-7------------|-7-7------------|-7-7------------|-7-7-----------------------
-7-7------------|-7-7------------|-7-7------------|-7-7-----------------------
------------------------------------------
--------------------------x-x-x-x--x------
------------------------------------------
Verse(Repeat many times)
-x-x-7-7-x-7-7-x-7-7----------------------------------------------------------
-x-x-7-7-x-7-7-x-7-7----------------------------------------------------------
-x-x-7-7-x-7-7-x-7-7----------------------------------------------------------
------------------------------------------------------------------------------
------------------------------------------------------------------------------
------------------------------------------------------------------------------
Chorus
------------------------------------------
------------------------------------------
--7-----7--------|-7-----7-----|-7-----7-----|-7-----7------------------------
----9-9---9-9----|---9-9---9-9-|---9-9---9-9-|---9-9---9-9--------------------
------------------------------------------
------------------------------------------
Bridge
-----------------------------------------------
-----------------------------------|-8---------------------
-8-----------------|-8-----------------|-8-----------------|---8-10----8-----------
---8-10------------|---8-10------------|---8-10------------|--------10---8-10------
--------8-10-6-8---|--------8-10-6-8---|--------8-10-6-8----------10---
-----------------8-------8-------8-------------

Solo
------------------------------------------
------------------------------------------
-------------------------|----9-7---9---------|-9b----------------
-----------------5---|-5-7b--7575757/|-/9-----9---------------7---
-----5-7-7---------7----------------------
--/7--------------------------------------

----------------------------------------------------|-
----------------------------|---------7-10-7----7-10-7----7-10-7|-
---------------7-7-------9b-|------9b--------9b--------9b-------|-
-9-9-9-9-9-----------|-9-9-9-9-9--------------------------------|-
----------------------------------------------------|-
----------------------------------------------------|-

------------------------------------------------------------------------------
----7-10-7-----7-10-7--10-7-----7-10b-----------------------------------------
-9b---------9b---------------9b-----------------------------------------------
------------------------------------------------------------------------------
------------------------------------------------------------------------------
------------------------------------------------------------------------------




Ваше мнение



Капча