red hot chili peppers
havana affair
by neil boniface
DEDICATED TO MY FRIENDS GROUP:RANDOM ACTS OF VIOLANCE
I think this is right but if not don't use it

INTRO
Dm Bm A
E---------1-------------------------------
B-------3----------3----------2-----------
G----2-----------4----------2-------------X2
D-0------------4----------2---------------
A-----------------------------------------
E-----------------------------------------
VERSE (STARTS STRUMING CHORDS BUT SEC TIME PLUCKING LIKE BELOW)
Dm,Bm,C,A
Dm Bm C A
E--------1-----------2----------------------0---
B------3---3-------3---3--------1---------2---2-
G---2-----------4-------------0---0-----2-------
D-0-----------4-------------2---------2---------X2
A-------------------------3---------------------
E-----------------------------------------------
INTRO AGAIN
VERSE AGAIN

INTERLUDE
E-----------------------------------------------
B-----------------------------------------------
G-----------------------------------------------X4
D-8/10-10-10-10-10--12--14----------------------
A-8/10-10-10-10-10--12--14----------------------
E-6/8--8--8--8--8---10--12----------------------

THATS IT THESE ARE ALL THE PARTS TO THE SONG PLEASE RATE IT
THANKS PEACE AND LOVE!!




Ваше мнение



Капча