Funky Crime
By the Red Hot Chili Peppers
Tabbed by Didier Thizy, Anthony M. and Martin Peters
>From the album The Uplift Mofo Party Plan

Bass

Intro:
G-|--------|--------|--------|--------|--------|----|
D-|--------|--------|--------|--------|--------|----|
A-|--------|--------|-2------|--------|--------|-4--|
E-|-5------|-1------|--------|-3------|-6------|----|

Verse bass figure 1:
G-|----------------------|-------------------------|
D-|----------------------|---------------------5-5-|
A-|-5-5-5-5-5-5-6-7--3-4-|-5-5-5-5-5-5-6-7---------|
E-|----------------------|-----------------x-4-----|

Chorus:
G-|--------------------|---------------------------|
D-|--------------------|---------------------------|
A-|--------------------|---------------------------|
E-|-9/10-x-7/9-6-5--4--|-9/10-x-7/9--6--5--4-4-4-4-|

Verse bass figure 2:
G-|--------------------|-----------------------------|
D-|--------------------|------------------------4--4-|
A-|--------------------|-7-7-7-7-7-7-8-9-------------|
E-|-2-2-2-2-2-2-2-2----|------------------x-2-2------|

Interlude:
G-|-------------2---|------|---------------|------------2----|
D-|-4----4--2-----4-|-2----|---------------|-4---4--2-----4--|
A-|-----------4-----|------|---------------|----------4------|
E-|-----------------|------|-0--2--5--2----|-----------------|
P P P T P T P T T T T P P P T P P

G-|------|-6--4-------|------------2----|------|------------|
D-|-2----|------7--4--|-4---4--2-----4--|-2----|------------|
A-|------|------------|----------4------|------|------------|
E-|------|------------|-----------------|------|-0h2--5--2--|

P P P P P P P P T P P P T T T

G-|------------2----|------|------------|-2--1--0----|-----------|------|
D-|-4---4--2-----4--|-2----|-1--2--3--4-|----------4-|-3--2--1---|-0----|
A-|----------4------|------|------------|------------|-----------|------|
E-|-----------------|------|------------|------------|-----------|------|
P P P T P P P P P P P P P P P P P P P




Ваше мнение



Капча