SONG: DOSED
ARTIST: RED HOT CHILI PEPPERS
ALBUM: BY THE WAY
TAB BY JOHN
INTRO
FIRST GUITAR
e -12----12----12----12------10----10----7--7------------|
B ---12----12----12----12------12-------8--8-------------|
G -----12----12----12----12------12----9--9--------------|
D -------------------------------------------------------|
A -------------------------------------------------------|
E -------------------------------------------------------|
SECOND GUITAR
e -------0------0---------------|
B -----------------------0----0-|
G ------------------------------|
D --2--5---2--5----0--2----2----|
A ------------------------------|
E ------------------------------|
THIRD GUITAR
e -------------------------------------------------------|
B -------------------------------------------------------|
G --4-4-7-4-4-----4-4-7-4-4-----4-4-7-4-4-----4-4-7-9-4--|
D -------------------------------------------------------|
A -------------------------------------------------------|
E -------------------------------------------------------|
FOURTH GUITAR
e ------------------|
B ------------------|
G ------------------|
D -5-4-2-0-2--------|
A ------------------|
E ------------------|
During the verse play the part of first, second and fourth guitar
VERSE
I got dosed by you. Closer than most to you. What am I supposed to do?
e ----------------------------------|
B --15---------15---------15--------|
G -----11-12------11-12------11-12--|
D ----------------------------------|
A ----------------------------------|
E ----------------------------------|
Take it away I never had it anyway. Take it away and everything will be okay.
e --19-17-15-14-15----15-14------------|
B --------------------------17-15--17--|
G -------------------------------------|
D -------------------------------------|
A -------------------------------------|
E -------------------------------------|
REPEAT INTRO, BUT THE THIRD GUITAR PLAY HALF RIFF
THIRD GUITAR
e --------------------------|
B --------------------------|
G --4-4-7-4-4-----4-4-7-4-4-|
D --------------------------|
A --------------------------|
E --------------------------|
VERSE
In you a star is born. You cut a perfect form. Someone forever warm.
e ----------------------------------|
B --15---------15---------15--------|
G -----11-12------11-12------11-12--|
D ----------------------------------|
A ----------------------------------|
E ----------------------------------|
Lay on.
e --19-17-15-14-15----15-14------------|
B --------------------------17-15--17--|
G -------------------------------------|
D -------------------------------------|
A -------------------------------------|
E -------------------------------------|
CHORUS
(I don't sure of B/G) B/G x2003x
D x00232
G 320033
C x32010
B/G D G C
Way upon the montain where she died
B/G D G C
All I ever wanted was your life
B/G D G C
Deep inside the canyon I can't hide
B/G D G C
All I ever wanted was your life

VERSE
Show love with no remorse. Climb on to your sea horse. This ride is right on course
e ----------------------------------|
B --15---------15---------15--------|
G -----11-12------11-12------11-12--|
D ----------------------------------|
A ----------------------------------|
E ----------------------------------|
This is the way I wanted it to be with you. This is the way I knew that it would be with you.
e --19-17-15-14-15---19-17-15-14-15----15-14-----------15-14------------|
B ------------------------------------------17-15--17--------17-15--17--|
G ----------------------------------------------------------------------|
D ----------------------------------------------------------------------|
A ----------------------------------------------------------------------|
E ----------------------------------------------------------------------|
CHORUS
B/G D G C
Way upon the montain where she died
B/G D G C
All I ever wanted was your life
B/G D G C
Deep inside the canyon I can't hide
B/G D G C
All I ever wanted was your life

REPEAT INTRO, BUT THE THIRD GUITAR PLAY THE FINAL OF HIS RIFF
THIRD GUITAR
e ---------------------------|
B ---------------------------|
G --4-4-7-4-4-----4-4-7-9-4--|
D ---------------------------|
A ---------------------------|
E ---------------------------|
VERSE
I got dosed by you. Closer than most to you. What am I supposed to do
e ----------------------------------|
B --15---------15---------15--------|
G -----11-12------11-12------11-12--|
D ----------------------------------|
A ----------------------------------|
E ----------------------------------|
Take it away I never had it anyway. Take it away and everything will be okay
e --19-17-15-14-15---19-17-15-14-15----15-14-----------15-14------------|
B ------------------------------------------17-15--17--------17-15--17--|
G ----------------------------------------------------------------------|
D ----------------------------------------------------------------------|
A ----------------------------------------------------------------------|
E ----------------------------------------------------------------------|

CHORUS
B/G D G C
Way upon the montain where she died
B/G D G C
All I ever wanted was your life
B/G D G C
Deep inside the canyon I can't hide
B/G D G C
All I ever wanted was your life

OUTRO (4:26)
e -----------------------------------------------|
B --17-15-17-15-17-15-17-15-17-15---12-12-12-12--|
G -----------------------------------------------|
D -----------------------------------------------|
A -----------------------------------------------|
E -----------------------------------------------|
e -----------------------------------------------|
B --17-15-17-15-17-15-17-15-17-15---12-12-12-12--|
G -----------------------------------------------|
D -----------------------------------------------|
A -----------------------------------------------|
E -----------------------------------------------|
e --------------------------------------------|
B --------------------------------------------|
G --17-17-17-17--17--16--12-12-12-11-12-12----|
D --------------------------------------------|
A --------------------------------------------|
E --------------------------------------------|
e ------------------------------------|
B -----15----15----15-----------------|
G --17-17-16-17-16-17-16-12-12-12-12--|
D ------------------------------------|
A ------------------------------------|
E ------------------------------------|
e --------------------------------------------------|
B --17-15-17-15-17-15-17-15-17-15---12-12-12-12-----|
G --------------------------------------------------|
D --------------------------------------------------|
A --------------------------------------------------|
E --------------------------------------------------|
e --------------------------------------------------|
B --17-15-17-15-17-15-17-15-17-15---12-12-12-12-----|
G --------------------------------------------------|
D --------------------------------------------------|
A --------------------------------------------------|
E --------------------------------------------------|
e ----------------------------------------------------|
B --15--15--15-15---12/13-13-13-13--11/12-12-12-12----|
G ----------------------------------------------------|
D ----------------------------------------------------|
A ----------------------------------------------------|
E ----------------------------------------------------|
e ------------------|
B --13---12-----15--|
G ------------------|
D ------------------|
A ------------------|
E ------------------|




Ваше мнение



Капча