Coffee Shop by Sean G.
By: The Red Hot Chili Peppers
From the Cd: One Hot Minute
^ = Bend & Release
p = Pull Off
P.M. = Palm Mute
Intro:
Gtr. 1: Wah-wah
e--------------------------------------------------
B--------------------------------------------------
G--9-9-9-9-9-9-9-9-9-9-9-9-9-9-9-9-9-9-9-9-9-9-9---
D--------------------------------------------------
A--------------------------------------------------
E--------------------------------------------------
|
| Gtr. 2: Slight Distrotion
e--------------------------------------------------
B-------------------------------------Harm.--------
G--------------------------------------12----------
D--------------------------------------------------
A---------------0----------------------------------
E---------------0----------------------------------
Verse: Distortion
|P.M.| |P.M.| |P.M.| |P.M.| Gtr. 4: Distortion
e-----------------------------------------------------------
B-O-----------------------------------------------------O--- (All the 0's are PM
G----------------------------------------------------------- 0
D---2-0-0-0--2-0-0-0--2-0-0-0--2-0-0-0---5------------------ 0
A-O-2-0-0-0--2-0-0-0--2-0-0-0--2-0-0-0---5--------------O---
E---0-0-0-0--0-0-0-0--0-0-0-0--0-0-0-0---3------------------
|
| Gtr. 3: Distortion
e-----------------0---0----------------x-15-15-15-15--------
B-O---------------0---0----------------x-14-14-14-14----O---
G-----------------4---3-------------------------------------
D-----------------------------------------------------------
A-O-----------------------------------------------------O---
E------------------------------x/12-------------------------

Chorus: Distortion (Gtr. 3)
P.M. |________let ring______|
e------------------------------------------------------------0--0--------------
B--------------------------8-9-9-9--------------------------0--0--------------
G--------------------------6-7-7-7--------------------------------------------
D--7--7---5--5----2---------------------7--7---10--10----2---------------------
A--7--7---5--5----2---------------------7--7---10--10----2---------------------
E--5--5---3--3----0----0----------------5--5---8---8-----0---------------------
e-----------------------------------------------------------------
B------------------------------------------5-----2----------------
G--6----6----4--4----3--------3----4--4----3-----3----------------
D--7----7----5--5----4--------4----5--5----x----------10---10-----
A--7----7----5--5----4--------4----5--5----4-----4----10---10-----
E--5----5----3--3----2--------2----3--3----2-----2----8----8------
e--------------------------------------------------
B--------------------------------------------------
G--------------------------------------------------
D--7--(7)/9---9/11--11/12--12--14------------------
A-----(-)------------------------------------------
E--5--(5)/7---7/9---9/-10--10--12------------------

Chorus: Distrotion (Gtr. 4)

e------------------------------------------------------------------------------
B------------------------------------------------------------------------------
G------------------------------------------------------------------------------
D--7------5-----2------------------------7-----10------2-----------------------
A--7------5-----2------------------------7-----10------2-----------------------
E--5------3-----0------------------------5------8------0-----------------------
e--------------------------------------------------------------
B--------------------------------------------------------------
G----6-------4------3--------3-----4---------------------------
D----7-------5------4--------4-----5----------------10---7-----
A----7-------5------4--------4-----5----------------10---7-----
E----5-------3------2--------2-----3----------------8----5-----
-Verse
-Chorus
Bridge: Slight Distortion & Delay (Gtr. 5)
e----------------------x15-15-----------------------
B-O--12---------12-----x15-15--12---------12-----O--
G----12---------12-------------12---------12--------
D----12---------12-------------12---------12--------
A-O----------------------------------------------O--
E---------------------------------------------------
Interlude 1: Wah-wah (Gtr. 1)
e---------------------------------------------------------------------
B---------------------------------------------------------------------
G-----9---7--x--6--7-------------------------------------7-------12---
D---------------------x--x--5---x--x--7^(7)--5------7/9----9/11-------
A--7---------------------------------------------7--------------------
E---------------------------------------------------------------------
e-----------------------------------------------------------
B-----------------------------------------------------------
G-----9---7--x--6--7------------------------7--x-6----------
D----------------------------------------6----------7p5p0---
A--7------------------x--x--3--x--x--5----------------------
E-----------------------------------------------------------
e-----------------------------------------------------
B-----------------------12----------------------------
G-----9---7--x--6--7----12------12/12-----------------
D-------------------------------11/13-------767-----
A--7--------------------------------------------------
E----------------------------0----------0---989-----
e-----------------------------------------------------------------------
B-----------------------------------------------------------------------
G-----9---7--x--6--7----------12--x--x--12---x--x-11---x--x--12--12-----
D-----------------------------12--x--x--12---x--x-11---x--x--12--12-----
A--7------------------x--10---10--x--x--10---x--x-9----x--x--10--10-----
E-----------------------------------------------------------------------
Interlude 2: Wah-wah (Gtr. 1)
e--------------------------------------------------4/5--------
B-------------------------------------------------------------
G--13--13-13-13-13-13-13-13-13-13-13-13-13-13-13--------------
D--------------------------------------------------6/7--------
A--11--11-11-11-11-11-11-11-11-11-11-11-11-11-11--------------
E-------------------------------------------------------------
e--5-5-5-5-5-5-5-5-5-5-5-5-5-5--5/7--7-7-7-7-7-7-7-7-7-7-7-7-7-7----
B--0-0-0-0-0-0-0-0-0-0-0-0-0-0--0----0-0-0-0-0-0-0-0-0-0-0-0-0-0----
G--9-9-9-9-9-9-9-9-9-9-9-9-9-9--9----9-9-9-9-9-9-9-9-9-9-9-9-9-9----
D--7-7-7-7-7-7-7-7-7-7-7-7-7-7--7/9--9-9-9-9-9-9-9-9-9-9-9-9-9-9----
A-------------------------------------------------------------------
E-------------------------------------------------------------------
e--7/10--10-10-10-10-10-10-10-10-10-10-10-10-10-10------
B--0-----0--0--0--0--0--0--0--0--0--0--0--0--0--0-------
G--9-----9--9--9--9--9--9--9--9--9--9--9--9--9--9-------
D--9/12--12-12-12-12-12-12-12-12-12-12-12-12-12-12------
A-------------------------------------------------------
E-------------------------------------------------------
-During the Interlude 1, Gtr. 6 plays this in Wah-wah:
|_1,2,3____________________||_4__|
e---12-12-12-12-12----12-12----12--12---12-12-12-12-12-12--12---12---12----
B-O-----------------------------------------------------------------------O-
G---9--9--9--9--9-----9--9-----9---9----9--9--9--9--9--9---9----9----9-----
D---------------------------------------------------------------------------
A-O-----------------------------------------------------------------------O-
E---------------------------------------------------------------------------
-Chorus
Outro:
|P.M.| |P.M.| |P.M.| |P.M.| Gtr. 4: Distortion
e-----------------------------------------------------------
B-O-----------------------------------------------------O---
G-----------------------------------------------------------
D---2-0-0-0--2-0-0-0--2-0-0-0--2-0-0-0---5------------------
A-O-2-0-0-0--2-0-0-0--2-0-0-0--2-0-0-0---5--------------O---
E---0-0-0-0--0-0-0-0--0-0-0-0--0-0-0-0---3------------------
|
| let ring with feedback 'till the end Gtr. 3: Distortion
e---15-----------------15------------------15---------15---------
B--------------------------14-----------------------------14-----
G-------14-----------------------------------14------------------
D----------------------------------------------------------------
A----------------------------------------------------------------
E----------------------------------------------------------------
Guitars:
Gtr. 1 - Wah-wah
Gtr. 2 - Slight Distortion
Gtr. 3 - Distortion
Gtr. 4 - Distrotion
Gtr. 5 - Slight Distortion & Delay
Gtr. 6 - Wah - wah
Questions, Comments : [email protected]




Ваше мнение



Капча