I think it's right... i just tabbed it about 5 minutes ago...

E------------------
B------------------
G------------------
D--0-2-0-2-0-2-0-2-
A------------------
E------------------

^Played several times u can figure it out.

now the hard part...

E------------------------------------------------------------------------------------
B------3-5-------3-5----------3-5-------3-5----------3-5--------3-5---------3-5------
G------------------------------------------------------------------------------------
D--2-2-----2-2-2------2-2-2-0-----0-0-0-----0-0-0-------------------------0----------
A-------------------------------------------------2-------2-2-2-----2-2-2------------
E------------------------------------------------------------------------------------

E-------------------------
B---------3-5---------3-5-
G-------------------------
D--0-0-0------0-0-0-2-----
A-------------------------
E-------------------------

^That gets played several times throughout the song.

The only other part i can do is the solo...

E--12-12-10-10-7-7-3-12-12/13\12-10-10-7-7-3-
B--------------------------------------------
G--------------------------------------------
D--------------------------------------------
A--------------------------------------------
E--------------------------------------------

This is my 1st tab. sorry if there are any mistakes but you can always post your own tab if you don't like mine.

(i THINK i had my guitar in standard tuning when i tabbed this... if not, you can figure it out)





Ваше мнение



Капча