Intro:
D Hm
D Hm
A
E |---3----------3-----------3--------3----------0--
B |-------0----------0----------0----------0-----2--
G |-0---------0------------0-------0-------------2--
D -----------------------------------2--
A -----------------------------------0--

Intro*:
2 times:
А D А Hm
E |-2--0-----------2-2-2-2------0-------------2-2-2-2-
B |--------3--2----3-3-3-3---------3--2-------3-3-3-3-
G -----2-2-2-2----------------2---4-4-4-4--
D -----0-0-0-0--------------------4-4-4-4--
A -----------------------------------------------

Chorus:
A D A Hm
Cabron Cabron
A D A Hm
Cabron Cabron

Verse 1:
A D A
I see you in the park
Hm A
You´re always wearing dark or blue
D
My dawg and me
A Hm A
And anyone from any other crew

G A
I am small but I am strong

I´ll get it on with you

D A Hm
If you want me to
AD A Hm
What else can I do
AG A
Everyone would take a cue from anything you do
D A Hm
If you want them to
AD A Hm
What else can it do
AG
I dont´ want to fight
A
I want to get along with you
G A
This time of nights for singing songs about the love from you

Intro*;
Chorus;

Verse2:
I come around and make peace get down have a barbecue
Let´s keep the moon awake and do electric boogaloo
I am small but I am strong
You see I´m just like you
If you only knew
That I´m just like you
All the world would take a cue from anything you do
If you only knew
That they´re just like you
I don´t want to fight
I want to get along with you
This time of nights for singing songs about the love from you

Intro*;
Intro*;

I don´t want to fight
I want to get along with you
This time of nights for singing songs about the love from you

Chorus;
Chorus;

If you want me too
What else can I do
Cause I´m just like you
If you only knew

Chorus;
Chorus;

/* Для Кати! */




Ваше мнение



Капча