Band:The Distillers
Song:Love Paranoid
Album:Coral Fang
By:jovannir
Intro=Verse
e|----------------------------|
B|----------------------------|
G|--10-------6---5------------|
D|--10---6---6---5------------|
A|---8---6---4---3------------|
E|-------4--------------------|
Chorus
e|----------------------------|
B|----------------------------|
G|---------------6------------|
D|---3---6---8---6------------|
A|---3---6---8---4------------|
E|---1---4---6----------------|
Bridge
e|-----------------------------|
B|-----------------------------|
G|-------9---10---9------------|
D|---6---9---10---9------------|
A|---6---7----8---7------------|
E|---4-------------------------|
Outro
e|-----------------------------|
B|-----------------------------|
G|------9---10-----------------|
D|--6---9---10-----------------|
A|--6---7----8-----------------|
E|--4--------------------------|
Verse x4
Chorus x2
Verse x4
Chorus x4
Bridge x1
Outro x2
Bridge x1
Outro x7
Very simple song,listen and play it!
By jovannir




Ваше мнение



Капча

Рекомендуем