INTRO:
e-----------------------------------|
B-----------------------------------|
G-----------------------------------|
D-----------------------------------|
A-------1---1-------3-1-3-----------|
E--1---1------3---3-----------------|
I feel it's changing, I stay the same, I'm...
e-----------------------------------|
B-----------------------------------|
G-----------------------------------|
D-----------------------------------|
A-------1---1-------3-1-3-----------|
E--1---1------3---3-----------------|
F Bb C
a solo cello outside a cho-rus
F
I've got a secret,
C F Bb C
It's time for me to tell that you've been kee-ping me warm
F Bb C
Just sweet beginnings and bitter en-dings
F Bb C
In coffee city, we borrowed hea-ven
F C
Don't give it back, I've never felt so wanted
F Bb C
Are you ta-king me home?
Bb C
You tell me you have to go...
CHORUS:
F C Bb
In the heat of summer sunshine
F C Bb
I miss you like nobody else
Dm C Bb
In the heat of summer sunshine
Bb C F
I kiss you, and nobody needs to know
F Bb C
Now that you've left me, there's no retur-ning
F Bb C
I keep comparing, you're always win-ning
F C
I try to be strong but you'll never be more wanted
F Bb C
Will you make me at home?
Bb C
Don't tell me you have to go...
F C Bb
In the heat of summer sunshine
F C Bb
I miss you like nobody else
Dm C Bb
In the heat of summer sunshine
Bb C Dm Bb-C
I kiss you, and nobody needs to know.....
break:
C-Dm-Bb-C
F,Bb,C,Dm
just sweet beginnings and bitter endings, in coffee city we borrowed heaven
e---5-3-3-5-5-------------------------------5-3-3-5-5------------------------------|
B-------------6-------6-6-5---6-5---------------------6-------6-6-5---6-5----------|
G---------------------------7-----7-5-------------------------------7-----7-5------|
D----------------------------------------------------------------------------------|
A----------------------------------------------------------------------------------|
E----------------------------------------------------------------------------------|
don't give it back, winter is coming and i need to stay warm
e----------------------------3-------------------|
B--1-----1-3---1-3---5---3-5---6-5---------------|
G----2-3-----3---------5-----------5-----2-----3-|
D------------------------------------------------|
A------------------------------------------------|
E------------------------------------------------|
F C Bb
In the heat of summer sunshine
F C Bb
I miss you like nobody else
Dm C Bb
In the heat of summer sunshine
Bb C
I kiss you, and nobody knows
F C Bb
In the heat of summer sunshine
F C Bb
I miss you like nobody else
Dm C Bb
In the heat of summer sunshine
Bb C F
I kiss you, and nobody needs to know
OUTRO:
sunshine...
e--8-8-6-6-8-8--------------|
B--------------6-6----------|
G---------------------------|
D---------------------------|
A---------------------------|
E---------------------------|




Ваше мнение



Капча