Author/Artist: The Corrs
Title: Give me a reason
Album: In Blue
Transcribed by: Daniel Z?vodsk?
Email: [email protected]
RIFF 1:
Em
e|---0---------0------0---------0---------------------------------------------|
B|-----0---------0------0---------0-------------------------------------------|
G|-------0---0------------0---0-----------------------------------------------|
D|---------2--------2-------2-------------------------------------------------|
A|----------------------------------------------------------------------------|
E|-0--------------------------------------------------------------------------|
Em (RIFF 1)?4
Give me a reason
Em
It's not romantic here in blue
swimming, swimming in blue
You left me lonely and confused
question, questioning you
so soon goodbye you stole my heart
believe, believing you
Was it a lie right from the start?
Answer, answer me do
D G D
Well now my body's weak, so just give me a reason
G D
And my makeup's off, so just give me a reason
G D
My defense is down, so just give me a reason
G Em
Give me a reason, give me a reason
You'll never know the love I felt
Wanting, waiting for you
It takes a weak heart to forget
Follow, follow it through
Well now my body's weak, so just give me a reason
And my makeup's off, so just give me a reason
My defenses down, so just give me a reason
Give me a reason, give me a reason
This is the violin solo transcribed for the guitar (quite fast),
repeat it a few times.
e|--------------12-10----19-17-15-12-15-12-10----10---------------------------|
B|---------12---------12----------------------12----12-10----10---------------|
G|-----9--------------------------------------------------12----12-9----9-----|
D|-9-----------------------------------------------------------------12---12--|
A|----------------------------------------------------------------------------|
E|----------------------------------------------------------------------------|
e|----------------------------------------------------------------------------|
B|----------------------------------------------------------------------------|
G|----------------------------------------------------------------------------|
D|-9----9---------------------------------------------------------------------|
A|---12-----------------------------------------------------------------------|
E|----------------------------------------------------------------------------|
Em
So what's a girl like me to do?
Drowning, drowning in you
And who's to save me from the blue?
And carry, carry me through
D G D
'Cos now my body's weak, so just give me a reason
G D
And my makeup's off, so just give me a reason
G D
my defenses down, so just give me a reason
G D
I am strong enough, so give me a reason
G D
Now my body is weak, so just give me a reason
G D
And my makeup's off, so just give me a reason
G D
My defenses down, so just give me a reason
G Em
Give me a reason, give me a reason
Em
Give me a reason, give me a reason
Give me a reason
D
What did I do wrong?
That's it (I hope). If you have any comments, suggestions, etc., let me know.





Ваше мнение



Капча