Everybody Hurts
Corrs version (original: R.E.M.)
FINGERING CHARTS:
D G
e--------0h2-----------2-------------------------------|
B------3-----3-------3---3-----------3-----------3-----|
G----2---------2---2-------2-------0---0-------0---0---|
D--0-------------0---------------0-------0---0-------0-|
A------------------------------------------------------|
E------------------------------3-----------3-----------|
! ? ? ? ? ? ! ? ? ? ? ? ! ? ? ? ? ? ! ? ? ? ? ?
A Em
e--------0-----------0-------------0-----------0-----|
B------2---2-------2-------------0---0-------0---0---|
G----2-------2---2-------------0-------0---0-------0-|
D----------------------------------------------------|
A--0-----------0-------------------------------------|
E----------------------3-2---0-----------0-----------|
! ? ? ? ? ? ! ? ? ? ? ? ! ? ? ? ? ? ! ? ? ? ? ?
Gbridge D/F#
e-----------------------------------------------------|
B-------3-----------3-----3---------3-----------3-----|
G-----0---0-----2h4-----0---------2---2-------2---2---|
D---0-------0-------------------0-------0---0-------0-|
A-----------------------------------------------------|
E-3-----------3-------2-------2-----------2-----------|
! ? ? ? ? ? ! ? ? ? ? ? ! ? ? ? ? ? ! ? ? ? ? ?
INTRO: D G D G D
G D G D
When the day is long, and the night, the night is yours alone
G D/F# Gbridge Em
When you're sure you've had enough, of this life, well hang on
A Em A Em
Don't let yourself go, everybody cries
A* D G
and everybody hurts sometimes
D G D
Sometimes everything is wrong, now it's time to sing along
G D
When your day is night alone (hold on, hold on)
G D
If you feel like letting go (hold on, hold on)
G D/F# Gbridge Em
When you think you've had too much of this life, well hang on
A Em A Em
Everybody hurts, take comfort in your friends
A*
Everybody hurts,
INTERMEDIATE:
F# Bm F# Bm F# Bm
Don't throw your hand, oh no, don't throw your hand
C G C Am PAUSE D
when you feel like you're alone, no, no, no, you are not alone
G D G D
If you're on your own, in this life, the days and nights are long
G D/F# Gbridge Em
When you think you've had too much, of this life, to hang on
A Em
Well everybody hurts, sometimes
A Em A D G
Everybody cries, sometimes, everybody hurts, sometimes
D G
everybody hurts sometimes
D G D G
so hold on, hold on, hold on, hold om
D G D G
Hold on, hold on, hold on, hold on,
D G D G
You are not alone
END:
e-------0h2-----|
B-----3-----3---|
G---2---------2-|
D-0-------------|
A---------------|
E---------------|
NOTES:
During BRIDGE, strum chords until PAUSE, then return to fingering charts
At the end, (?hold on??) strum chords quietly, sometimes playing the e string open
Use capo in 3rd
A* means skip the last five strums of the A chord (see fingering charts)
tabbed by Mikkel Jensen, Denmark
if you have any comments, questions, corrections etc. mail me at
[email protected]




Ваше мнение



Капча