Imagine
John Lennon
(Solo Guitarra)
Tabbed by [email protected]
La canciуn original es en piano pero esta puede ser una buena versiуn
para tocarla en guitarra.
Acordes
Cmaj7 C F E E7 Dm7 Am G7
E|-XXX-|-3--|-1---|----|----|-XXX-|----|-1---|
B|---5-|--5-|-1---|----|----|---6-|-1--|-----|
G|--4--|--5-|--2--|-1--|-1--|--5--|--2-|-----|
D|---5-|--5-|---3-|--2-|----|-3---|--2-|-----|
A|-3---|-3--|---3-|--2-|--2-|--5--|----|--2--|
E|-XXX-|-XX-|-1---|----|----|-XXX-|-XX-|---3-|
INTRO
Cmaj7 C F F Cmaj7
E|-----------------------------------|
B|-----------------------------------|
G|-------------4-5-2---2---2---2-2-4-|
D|-5---5---5---------3---3---3-------| 2 times
A|---3---3---3-----------------------|
E|-----------------------------------|
Cmaj7 C F F Cmaj7
E|-----------------------------------|
B|-----------------------------------|
G|-------------4-5-2---2---2---2-2-4-|
D|-5---5---5---------3---3---3-------|
A|---3---3---3-----------------------|
E|-----------------------------------|
1.
Imagine there's no heaven
It's easy if you try
No hell below us
4.
Imagine there's no countries
It isn't hard to do
Nothing to kill or die for
8.
Imagine no posses - sions
I wonder if you can
No need for greed or hunger
Cmaj7 C F
E|-------------------------------|
B|-------------------------------|
G|-------------4-5-2---2---2---2-|
D|-5---5---5---------3---3---3---|
A|---3---3---3-------------------|
E|-------------------------------|
2.
Above us only sky
5.
And no religion too
9.
A brotherhood of man
Am E Dm7 G7
E|---------------------------|-------------------1-|
B|---------------------------|-----------0---0-----|
G|-2---2---1---1-------------|---0---0-----0---0---|
D|---2---2---2---2-3---3---3-|-3---0---0-----------|
A|-------------------5---5---|---------------------|
E|---------------------------|---------------------|
3.
Imagine all the people Living for to - day
6.
Imagine all the people Living life in peace
10.
Imagine all the people Sharing all the world
(Fill 1) (Fill 2)
F Cmaj7 C C Cmaj7 E E7 C
E|---------------------| |-------------| |-----------------|
B|---------------------| |-------------| |-----------------|
G|-2---2---4---4---5---| |-5-4-1-------| |---5---5---5---5-|
D|---3---3---5---5---5-| |-------2-0---| |-5---5---5---5---|
A|---------------------| |-----------2-| |-----------------|
E|---------------------| |-------------| |-----------------|
7.
You may say I'm a dreamer \
But I'm not the only one |- Fill 1 (3times)
I hope some day you'll join us /
And the world will be as one --- Fill 2
11.
You may say I'm a dreamer
But I'm not the only one
I hope some day you'll join us
And the world will live as one




Ваше мнение



Капча

Рекомендуем