-------------------------------------------------------------------------------
ALL THE THINGS SHE SAID- t. A. T. u.
-------------------------------------------------------------------------------
By: El Rockero
Chorus
E----------------------------------------------------------------
B----------------------------------------------------------------
G--6-6-6-6-6-6-6-5-5-5-5-5-5-5-5---------------------------------
D--6-6-6-6-6-6-6-5-5-5-5-5-5-5-5-3-3-3-3-3-3-3-6-6-6-6-6-6-------
A--4-4-4-4-4-4-4-3-3-3-3-3-3-3-3-3-3-3-3-3-3-3-6-6-6-6-6-6-------
E--------------------------------1-1-1-1-1-1-1-4-4-4-4-4-4-------
Bridge
E----------------------------------------------------------------
B----------------------------------------------------------------
G-9-9-9-9-9-9-9-9-9-9-7-7-7-7-7-7-7-7-5-5-5-5--------------------
D-9-9-9-9-9-9-9-9-9-9-7-7-7-7-7-7-7-7-5-5-5-5--------------------
A-7-7-7-7-7-7-7-7-7-7-5-5-5-5-5-5-5-5-5-5-5-5--------------------
E----------------------------------------------------------------
E----------------------------------------------------------------
B----------------------------------------------------------------
G----------------------------------------------------------------
D-5-5-5-5-5-5-5-5-5-5-8-8-8-8-8-8-8-8-8-8-8-8--------------------
A-5-5-5-5-5-5-5-5-5-5-8-8-8-8-8-8-8-8-8-8-8-8--------------------
E-3-3-3-3-3-3-3-3-3-3-6-6-6-6-6-6-6-6-6-6-6-6--------------------
Actually I play the first verse as right here
Palm Muting please...
E----------------------------------------------------------------
B----------------------------------------------------------------
G---------------------7-7-7-7-7-7-7-7-5-5-5-5--------------------
D-3-3-3-3-3-3-3-3-3-3-7-7-7-7-7-7-7-7-5-5-5-5--------------------
A-3-3-3-3-3-3-3-3-3-3-5-5-5-5-5-5-5-5-5-5-5-5--------------------
E-0-0-0-0-0-0-0-0-0-0--------------------------------------------
E----------------------------------------------------------------
B----------------------------------------------------------------
G----------------------------------------------------------------
D-5-5-5-5-5-5-5-5-5-5-8-8-8-8-8-8-8-8-8-8-8-8--------------------
A-5-5-5-5-5-5-5-5-5-5-8-8-8-8-8-8-8-8-8-8-8-8--------------------
E-3-3-3-3-3-3-3-3-3-3-6-6-6-6-6-6-6-6-6-6-6-6--------------------
The strange keyboard part played during the bridge is playe as here:
e|---------------------------------------------------------------------------|
B|---------------------------------------------------------------------------|
G|---------------------------------------------------------------------------|
D|---------------------------------------------------------------------------|
A|---------------------------------------------------------------------------|
E|---------------------------------------------------------------------------|
e|---------------------------------------------------------------------------|
B|---------------------------------------------------------------------------|
G|---------------------------------------------------------------------------|
D|---------------------------------------------------------------------------|
A|---------------------------------------------------------------------------|
E|-17-17-16-14-16-17-17-16-14-16-17-17-19-17-16-17-17-16-14-16-17-17-19------|
e|---------------------------------------------------------------------------|
B|---------------------------------------------------------------------------|
G|---------------------------------------------------------------------------|
D|---------------------------------------------------------------------------|
A|---------------------------------------------------------------------------|
E|-17-16-17-17-19-17-16-17-17-19-17-16-17-17-16------------------------------|
e|---------------------------------------------------------------------------|
B|---------------------------------------------------------------------------|
G|---------------------------------------------------------------------------|
D|---------------------------------------------------------------------------|
A|---------------------------------------------------------------------------|
E|-17-17-16-14-16-17-17-16-14-16-17-17-19-17-16-17-17-16-14-16-17-17-19------|
e|---------------------------------------------------------------------------|
B|---------------------------------------------------------------------------|
G|---------------------------------------------------------------------------|
D|---------------------------------------------------------------------------|
A|---------------------------------------------------------------------------|
E|-17-16-17-17-19-17-16-17-17-19-17-16-17-17-19------------------------------|
That's All, By now...




Ваше мнение



Капча