Intro:
----------------------------| -----------| --------------|
----------------------------| -----------| --------------|
----------------------------| -----------| --------------|
-9--10--9---9---9-9---------| -9--10--9--| --------------|
-7--7---7---10--8-7---------| -7--7---7--| --11-9--7-----|
----------------------------| -----------| --9--7--5-----|
Проигрыш:
----------------------------| --------------|
----------------------------| --------------|
----------------------------| --5-----7-----|
---9-7--5-------7--5--7-----|x2 --5-----7-----|x2
---7-5--3---5---5--3--5-----| --3-----5-----|
------------3---------------| --------------|
Куплет:
------------------------------| --------------| ----------|
------------------------------| --------------| ----------|
------------------------------| --------------| ----------|
---9---10---12----------------|x2 --------------| ----------|
---7---7----10----12----------| ---9-9-9-9----| --11-9--7-|
------------------10----------| ---7-7-7-7----| --9--7--5-|
Они не видят - о-о - доход и т.д. ...Наро-о-о-д
Припев:
----------------------------|
----------------------------|
----------------------------|
---9-7--5-------7--5--7-----|x2
---7-5--3---5---5--3--5-----|
------------3---------------|
Ты видел это 100-и раз на MTV и т.д.




Ваше мнение



Капча