1------------------------------------
2------------------------------------
3------------------0-----------------
4------0-----2---2---4-0-------------
5----2-----2---3---------(0)---------
6--3-----0---------------------------
G Em C D x4
G C G
We wrote this short and speedy song
C G
We used the only 3 fucked chords
C D
And we don´t care about the words
Trite tune, trite beat, trite arrangement
We don´t wanna go back down to the basement
And I got bad articulate
G D Em C G
From Russia with Punk - no commies, no bombs
D Em C
no commies, no bombs
G D Em C G
From Russia with Punk - no commies, no bombs
D Em C
no commies, no bombs
1------------------------------------
2------------------------------------
3------------------------------------
4--2-2-2-2-0-0-0-0-----0-2-0---------
5------------------2-3---------------
6------------------------------------
1------------------------------------
2------------------------------------
3--0-0-0-0-0-0-0-0-------------------
4------------------2-2-0-2-----------
5------------------------------------
6------------------------------------
Во время второго куплета
1------------------------------------
2------------------------------------
3------------------------------------
4--0-0-0-0-0-0-0-0-------------------
5------------------------------------
6------------------3-3-3-3-3-3-3-3---
1------------------------------------
2------------------------------------
3------------------------------------
4--0-0-0-0---------------------------
5----------3-3-3-3-2-2-2-2-0-0-0-0---
6------------------------------------
после 2го припева соляк - вот он (там
сначалана басе но его мы не подбирали)
1--0-0-0-0---------------0-----------
2----------3-3-3-3-0-1-3---3---------
3------------------------------------
1--7-7-7-7-5-5-5-5-2-3-5-7-5---------
2------------------------------------
3------------------------------------
1--12-12-12-12-10-10-10-10-7-8-10-12-10
2-------------------------------------
3-------------------------------------


Ваше мнение



Капча

Рекомендуем