ok, I noticed no one out of the three tabs got the intro to this song right,
one came close, the previous one, but I'll b damned if this version's intro is wrong.
I'm pretty sure Taproot use either drop D or drop C on their songs, but as the
intro doesn't need anything more than standard really, I'll just use drop D for it.

e|--------------------------------------
B|--------------------------------------
G|--------------------------------------
D|-9-9-x-5--5-5-5-5--12-12-x-7--7-7-7-7-
A|-9-9-x-5--5-5-5-5--12-12-x-7--7-7-7-7-
D|-9-9-x-5--5-5-5-5--12-12-x-7--7-7-7-7-

the above is played once, and then goes into

|---------------------------------------------------
|---------------------------------------------------
|---------------------------------------------------
|-9-9-x-5--5-5-5-5-x-5/7-7-7-x-5/7-7-7--10-10-10-10-
|-9-9-x-5--5-5-5-5-x-5/7-7-7-x-5/7-7-7--10-10-10-10-
|-9-9-x-5--5-5-5-5-x-5/7-7-7-x-5/7-7-7--10-10-10-10-
^ add distortion

then, I'm not totally sure, but I think it goes (with heavier distortion)

|----------------------------
|----------------------------
|----------------------------
|-9-9-9-x-9-9-9--10-10-10-10-
|-9-9-9-x-9-9-9--10-10-10-10-
|-9-9-9-x-9-9-9--10-10-10-10-

repeat
and play

|----------------------------------
|----------------------------------
|----------------------------------
|-5/7-7-7--x--5/7-7-7--10-10-10-10-
|-5/7-7-7--x--5/7-7-7--10-10-10-10-
|-5/7-7-7--x--5/7-7-7--10-10-10-10-





Ваше мнение



Капча