This song is awesome I’m pretty sure this is correct if not email me
[email protected] I am only 13 so.
Regular tuning (EAGDBe)
/-slide

INTRO clean (strumming not included figure it out)
E---------------------------------------------------------------------
B---------------------------------------------------------------------
D---4------------7-----------4----------------------------------------
G---4------5-----7-----7-----4---5-----7/----9-------7/-------9----10-
A---2------5-----5-----7-----2---5-----7/----9-------7/-------9----10-
E----------3-----------5---------3-----5/----7-------5/-------7-----8-
Heavy Distortion x4
E--------------------------------------------------------------------
B--------------------------------------------------------------------
D--------------------------------------------------------------------
G----7/-----9-----7/-----9-----10------------------------------------
A----7/-----9-----7/-----9-----10------------------------------------
E----5/-----7-----5/-----7------8------------------------------------
Verse x5
E--------------------------------------------------------------------
B--------------------------------------------------------------------
D--------------------------------------------------------------------
G----7/-----9-----7/-----9-----10------------------------------------
A----7/-----9-----7/-----9-----10------------------------------------
E----5/-----7-----5/-----7------8------------------------------------
Heavy Distortion x4
E--------------------------------------------------------------------
B--------------------------------------------------------------------
D--------------------------------------------------------------------
G----7/-----9-----7/-----9-----10------------------------------------
A----7/-----9-----7/-----9-----10------------------------------------
E----5/-----7-----5/-----7------8------------------------------------
Chorus light distortion x2
E---------------------------------------------------------------------
B---------------------------------------------------------------------
D---4------------7-----------4----------------------------------------
G---4------5-----7-----7-----4---5---- 7/----9------7/------9------10-
A---2------5-----5-----7-----2---5-----7/----9------7/------9------10-
E----------3-----------5---------3-----5/----7------5/------7------8--
Verse x5
E--------------------------------------------------------------------
B--------------------------------------------------------------------
D--------------------------------------------------------------------
G----7/-----9-----7/-----9-----10------------------------------------
A----7/-----9-----7/-----9-----10------------------------------------
E----5/-----7-----5/-----7------8------------------------------------
Heavy Distortion x4
E--------------------------------------------------------------------
B--------------------------------------------------------------------
D--------------------------------------------------------------------
G----7/-----9-----7/-----9-----10------------------------------------
A----7/-----9-----7/-----9-----10------------------------------------
E----5/-----7-----5/-----7------8------------------------------------
The bridge is practically the same notes as the verse w/heavy distortion its
really easy to figure out.

Chorus light distortion x2
E--------------------------------------------------------------------
B--------------------------------------------------------------------
D---4------------7-----------4---------------------------------------
G---4------5-----7-----7-----4---5-----7/----9------7/------9----10--
A---2------5-----5-----7-----2---5-----7/----9------7/------9----10--
E----------3-----------5---------3-----5/----7------5/------7----8---
The end is like this x2
E--------------------------------------------------------------------
B--------------------------------------------------------------------
D--------------------------------------------------------------------
G----7/-----9-----7/-----9-----10------------------------------------
A----7/-----9-----7/-----9-----10------------------------------------
E----5/-----7-----5/-----7------8------------------------------------





Ваше мнение



Капча