Taproot
Myself
from the album ?Welcome?

Tuning (low to high): A-E-A-D-G-B

Intro: (distortion)
[--------------------------------|
[--------------------------------|
[--------------------------------|
[1-1-1-1-------------------------| 3X
[1-1-1-1-------------------------|
[1-1-1-1-------------------------|

[--------------------------------|
[--------------------------------|
[--------------------------------|
[1-1-1-1-----0-------------------|
[1-1-1-1-----0-(let ring)--------|
[1-1-1-1-----0-------------------|

Verse: (clean)
[----------------------------------------------|
[11--11--11-11--11--11-11--11--11-11--11--11---|
[-9---9---9--9---9---9--0---0---0--0---0---0---|
[-9---9---9--9---9---9--0---0---0--0---0---0--|
[----------------------------------------------|
[----------------------------------------------|
play 3X
[---------------------------------------------| /
[11--11--11-11--11--11--9---9---9--9---9---9--| /
[-9---9---9--9---9---9--9---9---9--9---9---9--|
[-9---9---9--9---9---9--7---7---7--7---7---7--|
[---------------------------------------------|
[---------------------------------------------|

[--------------------------------------------|
[11--11--11-11--11--11-11--11--11-11--11--11-|
[-9---9---9--9---9---9--0---0---0--0---0---0-|
[-9---9---9--9---9---9--0---0---0--0---0---0-|
[--------------------------------------------|
[--------------------------------------------|

[--------------------------------------------|
[11--11--11-11--11--11--9---9---9--9---------|
[-9---9---9--9---9---9--9---9---9--9---------|
[-9---9---9--9---9---9--7---7---7--7---------|
[--------------------------------------------|
[--------------------------------------------|

Chorus: (distortion)
[----------------------------------|
[----------------------------------|
[----------------------------------|
[1-1-1-1-------------1-----1------|
[1-1-1-1-------------1-----1-------|
[1-1-1-1-------------1-----1-------|
play 2X
[---------------------------------| /
[---------------------------------| /
[---------------------------------|
[1-1-1-1-----0--------------------|
[1-1-1-1-----0-(let ring)---------|
[1-1-1-1-----0--------------------|

[--------------------------------|
[--------------------------------|
[--------------------------------|
[1-1-1-1-------------------------|
[1-1-1-1-------------------------|
[1-1-1-1-------------------------|

[--------------------------------|
[--------------------------------|
[--------------------------------|
[1-1-1-1-----0-------------------|
[1-1-1-1-----0-(let ring)--------|
[1-1-1-1-----0-------------------|

[--------------------------------|
[--------------------------------|
[--------------------------------|
[1-1-1-1-------------1-----1-----|
[1-1-1-1-------------1-----1-----|
[1-1-1-1-------------1-----1-----|

[--------------------------------|
[--------------------------------|
[--------------------------------|
[1-1-1-1-----0-------------------|
[1-1-1-1-----0-(let ring)--------|
[1-1-1-1-----0-------------------|

verse

chorus

Bridge: (clean)
[11--11--11-11--11--11--7---7---7--7---7---7---|
[11--11--11-11--11--11--7---7---7--7---7---7---|
[11--11--11-11--11--11--7---7---7--7---7---7---|
[-9---9---9--9---9---9--5---5---5--5---5---5--|
[-9---9---9--9---9---9--5---5---5--5---5---5---|
[-9---9---9--9---9---9--5---5---5--5---5---5---|
play 5X
[-5---5---5--5---5---5--7---7---7--7---7---7--| /
[-5---5---5--5---5---5--7---7---7--7---7---7--| /
[-5---5---5--5---5---5--7---7---7--7---7---7--|
[-2---2---2--2---2---2--5---5---5--5---5---5--|
[-2---2---2--2---2---2--5---5---5--5---5---5--|
[-2---2---2--2---2---2--5---5---5--5---5---5--|

[11--11--11-11--11--11--7---7---7--7---7---7-|
[11--11--11-11--11--11--7---7---7--7---7---7-|
[11--11--11-11--11--11--7---7---7--7---7---7-|
[-9---9---9--9---9---9--5---5---5--5---5---5-|
[-9---9---9--9---9---9--5---5---5--5---5---5-|
[-9---9---9--9---9---9--5---5---5--5---5---5-|

[-5---5---5--5---5---5--7--------------------|
[-5---5---5--5---5---5--7--------------------|
[-5---5---5--5---5---5--7--------------------|
[-2---2---2--2---2---2--5-(let ring)---------|
[-2---2---2--2---2---2--5--------------------|
[-2---2---2--2---2---2--5--------------------|

chorus

Ending (distortion)
[11--11--11-11--11--11--7---7---7--7---7---7---|
[11--11--11-11--11--11--7---7---7--7---7---7---|
[11--11--11-11--11--11--7---7---7--7---7---7---|
[-9---9---9--9---9---9--5---5---5--5---5---5--|
[-9---9---9--9---9---9--5---5---5--5---5---5---|
[-9---9---9--9---9---9--5---5---5--5---5---5---|
play 3X
[-5---5---5--5---5---5--7---7---7--7---7---7--| /
[-5---5---5--5---5---5--7---7---7--7---7---7--| /
[-5---5---5--5---5---5--7---7---7--7---7---7--|
[-2---2---2--2---2---2--5---5---5--5---5---5--|
[-2---2---2--2---2---2--5---5---5--5---5---5--|
[-2---2---2--2---2---2--5---5---5--5---5---5--|

[11--11--11-11--11--11--7---7---7--7---7---7-|
[11--11--11-11--11--11--7---7---7--7---7---7-|
[11--11--11-11--11--11--7---7---7--7---7---7-|
[-9---9---9--9---9---9--5---5---5--5---5---5-|
[-9---9---9--9---9---9--5---5---5--5---5---5-|
[-9---9---9--9---9---9--5---5---5--5---5---5-|

[-5---5---5--5---5---5--7--------------------|
[-5---5---5--5---5---5--7--------------------|
[-5---5---5--5---5---5--7--------------------|
[-2---2---2--2---2---2--5-(let ring)---------|
[-2---2---2--2---2---2--5--------------------|
[-2---2---2--2---2---2--5--------------------|

[--------------------------------|
[--------------------------------|
[--------------------------------|
[1-1-1-1-------------1-----1-----|
[1-1-1-1-------------1-----1-----|
[1-1-1-1-------------1-----1-----|

[--------------------------------|
[--------------------------------|
[--------------------------------|
[1-1-1-1-----0-------------------|
[1-1-1-1-----0-(let ring)--------|
[1-1-1-1-----0-------------------|
^end on





Ваше мнение



Капча