This is an awesome song, heres the intro.
s=slide
drop d tuning
--------------------------------------------
--------------------------------------------
--------------------------------------------
---9-9(s)-5-5-5---10-10(s)-7-7-7------------ x2
---7-7(s)-3-3-3---12-12(s)-5-5-5------------
--------------------------------------------
-------------------------------------------------
-------------------------------------------------
-------------------------------------------------
---5(s)-7---5(s)-7--6-6-----5(s)-7--5(s)--7-8-8--
---3----5---3----5--8-8-----5----7--5-----7-8-8--
----------------------------5----7--5-----7-8-8--





Ваше мнение



Капча