taproot
Like

Tuning: (A D G C E A)

Intro/ Verse

A|-----------3------------------------3----------|
E|------1-------1----1----------1--------1-----1-|
C|-0---------------------0----0------------------|
G|-2/3-----3-------3-----32-------2--------2----|
D|-----------------------------------------------|
A|-----------------------------------------------|

1.You look like me I'm sorry for you
You talk like me I can't understand you
You think like me You're ***ing crazy
You want to be me But that's okay because

2.You act like me You're embarrassing
You talk like me You don't listen
You think like me You're so *** crazy
You want to be me But that's okay because

Prechorus

A|--0--0--0--0--0--0--0--0--3--3--3--3--3--3--3--3-|
E|--3--3--3--3--3--3--3--3--1--1--1--1--1--1--1--1-|
C|--2--2--2--2--2--2--2--2--2--2--2--2--2--2--2--2-|
G|--0--0--0--0--0--0--0--0--3--3--3--3--3--3--3--3-|
D|-(0)(0)(0)(0)(0)(0)(0)(0)------------------------|
A|-------------------------------------------------|
You remind me of me softly
But only the good Cause I'm just the mean

Chorus
2nd time
A|-----------0-0-0-0-----------0-0-0-0-----------------0-0-0-0-0-0-0-|-0~-|
E|-----------3-3-3-3-----------3-3-3-3-----------------0-0-0-0-0-0-0-|-0~-|
C|-----------2-2-2-2-----------2-2-2-2--0-0-0-0-0-0-0--2-2-2-2-2-2-2-|-2~-|
G|-----------0-0-0-0-----------0-0-0-0--2-2-2-2-2-2-2--2-2-2-2-2-2-2-|-2~-|
D|-/9---9-9----------/9---9-9-----------3-3-3-3-3-3-3--0-0-0-0-0-0-0-|-0~-|
A|--0---0-0-----------0---0-0----------------------------------------|----|
Hanging by a thread for your honor Just helps me to see
inside myself

Bridge

A|-0~---------------------------------------------------------|
E|-0~--15-15-15-1514-14-1412-12-1210-10-10-----------------|
C|-2~--0--0--0--0--0--0--0--0--0--0--0--0--0--0-0-0-0-0-0-0-0-|
G|-2~-----------------------------------------2-2-2-2-2-2-2-2-|
D|-0~-----------------------------------------3-3-3-3-3-3-3-3-|
A|------------------------------------------------------------|
When these memories become
liquid dreams Just like fantasies and like fallen
leaves I guess All I need is to find
my desires and set out to acquire them





Ваше мнение



Капча