taproot
emotional times
verse
B|--------------------------------------------------------|
G|--------------------------------------------------------|
D|--------------------------------------------------------|
A|-00-0-00-0--1010-10-1010-10--55-5-55-5--1010-10-1010-10-|
E|-00-0-00-0---8-8--8--8-8--8--55-5-55-5---8-8--8--8-8--8-|
A|-00-0-00-0---8-8--8--8-8--8--55-5-55-5---8-8--8--8-8--8-|
verse B
B|-------------------------|
G|-------------------------|
D|-------------------------|
A|-22-2-22-2-2-11-1-11-1-1-|
E|-22-2-22-2-2-11-1-11-1-1-|
A|-22-2-22-2-2-11-1-11-1-1-|
chorus
B|--------------------------------------------------------|
G|--------------------------------------------------------|
D|--------------------------------------------------------|
A|-77-7-77-7-7-1010-10-1010-10-10-22-2-22-2-2-11-1-11-1-1-|
E|-55-5-55-5-5--8-8--8--8-8--8--8-22-2-22-2-2-11-1-11-1-1-|
A|-55-5-55-5-5--8-8--8--8-8--8--8-22-2-22-2-2-11-1-11-1-1-|
chorus B:
B|-------------------------------------------------------------|
G|-------------------------------------------------------------|
D|-------------------------------------------------------------|
A|-77-7-77-7-7-1010-10-1010-10-10-22-2-22-2-2------------------|
E|-55-5-55-5-5--8-8--8--8-8--8--8-22-2-22-2-2------------------|
A|-55-5-55-5-5--8-8--8--8-8--8--8-22-2-22-2-2-30-0-0-0h2-2h3-3-|
B|------------------|
G|------------------|
D|------------------|
A|------------------|
E|------------------|
A|-30-0-0-0h2-2h3-3-|
bridge
B|------------------|
G|------------------|
D|------------------|
A|-30-0-0-0h2-2h3-3-|
E|-30-0-0-0h2-2h3-3-|
A|-30-0-0-0h2-2h3-3-|
interlude:
B|-------------------------------------------------|
G|-------------------------------------------------|
D|-------------------------------------5-5-5-------|
A|-------------------------------3-3-3-------3-3-3-|
E|-------------------------5-5-5-------------------|
A|-0-0-0-0-0-0-0-0-0-0-0-0-------------------------|
interlude 2: (w/ effect)
B|-----------------------------------|
G|-----------------------------------|
D|-55-5-----55-5-----55-5-----55-5---|
A|-33-3-7---33-3-7---33-3-7---33-3-7-|
E|-55-5-5---55-5-5---55-5-5---55-5-5-|
A|-----------------------------------|
interlude 3: (w/ effect)
B|------------|
G|------------|
D|-5555--7777-|
A|-3333--7777-|
E|-5555--5555-|
A|------------|
the song order isnt that hard to figuare out. i can't really put the song order
down without messing up. anyway, have fun with the tab and let me know what you
think of it.





Ваше мнение



Капча