Artist: TAPROOT
Song: DRAGGED DOWN
Album: GIFT
Transcribed by: Jordan Griffin
This is basically how it goes. It sounds pretty good to me.
Email me at [email protected] with questions, etc.
Tuning – G,D,A,Db
Legend:
* - ring
/ - slide up
3p0 – pull off
Riff A (Intro):
G|-------------|
D|-------------|
A|-------------|
Db|-2-2-2-0-3-2-|
Riff B (Verse):
G|-----------|
D|-2---2---2-|
A|--0*--0*---|
Db|-----------|
Riff C (Pre-Chorus):
G|------------------------------------|
D|------------------------------------|
A|------------------------------------|
Db|-0000000000000000--5555555555555555-|
Riff D (Chorus - 1st part):
G|------------------------|
D|------------------------|
A|------------------------|
Db|-0-0-000000--5-5-555555-|
Riff E (Chorus - 2nd part):
G|-----------------------------------------|
D|-------------2---------------------------|
A|------------0-0--------------------------|
Db|-2/3p0--0--0---0-0-0-000000--5-5-555555--|
Play:
Riff A 8x
Riff B 4x
Riff C 1x
Riff B 4x
Riff C 1x
Riff D 2x
Riff E 1x
Riff B 4x
Riff C 1x
Riff D 2x
Riff E 1x
Riff D 2x
Riff E 1x
Riff A 10x
Riff D 2x
Riff E 1x
Riff D 2x
Riff E 1x
Riff B 16x





Ваше мнение



Капча