taproot
comeback
~ = ring
* = harmonic
x = mute
/ = slide
intro: clean
B|---------------------------- 'ill times rollin'
G|----------------------------
D|----------------------------
A|----------------------------
E|---5---6---5---9---5--------
A|---0-0-0-0-0-0-0-0-0-0------
Verse
B|---------------- Use octaver. *play note as long as needed*
G|----------------
D|---11~----------
A|----------------
E|----------------
A|----------------
B|--------------------- 'So i pray'
G|---------------------
D|---------------------
A|-------------4-4-6---
E|---3h5-5-9-6---------
A|---------------------
Chorus
B|------------------------------------------- 'COMEBACK!'
G|-------------------------------------------
D|-------------------------------------------
A|---------------------11~-12-12-12-12-------
E|---------------------9~--10-10-10-10-------
A|---7-6-0-*5-*5--1-4--0---0--0--0--0--------
B|---------------------------------- 'So i pray...' 2nd time <
G|----------------------------------
D|----------------------------------
A|---5/7-----7--7-7-----------------
E|---3/5-x-x-5--5-5-4-4-4-4-5-5-5-5-
A|-------x-x--------4-4-4-4-5-5-5-5-
B|---------------------------
G|---------------------------
D|---------------------------
A|---0-1-0-1-4-1-0-1-0-1-4-1-
E|---0-1-0-1-4-1-0-1-0-1-4-1-
A|---0-1-0-1-4-1-0-1-0-1-4-1-





Ваше мнение



Капча